» » »

Beater Bass tabs (ver.1)

Artists:  A B C D E F G H I J K L M N O P Q R S T U V W X Y Z # 

Beater Bass tabs (ver.1)

Phaze
Rating:
0/5 (0 votes)

Hard to play? Try these video lessons and learn fast.
                Riff 1:
g:----7h9-7-5-7-5-0-----3h5-----1h3-1---1----------|
d:--7-----------------5-------3-------3---3-1-5----|
a:5-----------------3-------1-------------------5--|
e:------------------------------------------------3|
b:-------------------------------------------------|


Riff 2:
g:----------------------------------------|
d:--2-3-5-5-5-3---2-3-7-7-7-5-(3-3-3-3-3)-|
a:3-------------3-------------------------|
e:----------------------------------------|
b:----------------------------------------|


Riff 3:
g:----7h9-7-7-9-7-------9-----5h7-5---5-----------|
d:--9-------------7---9-----7-------7---7-5--9----|
a:9-----------------7-----5--------------------9--|
e:-----------------------------------------------9|
b:------------------------------------------------|
            
Hard to play? Try these video lessons and learn fast. | Correct




comments powered by Disqus
↑ Back to top | Tablatures and chords are parodies/interpretations of the original songs. You may use it for private study, scholarship, research or language learning purposes only