» » »

Phantom Planet, Winter Wonderland Tabs (ver.1)

Artists:  A B C D E F G H I J K L M N O P Q R S T U V W X Y Z # 

Winter Wonderland Tabs (ver.1)

Phantom Planet Tabs
 Rating:
4/5 (4 votes)
Winter Wonderland lessons Tabs too difficult? Try these video lessons and learn fast
1
                

The holidays are right around the corner and i love phantom planets rendition of
winter wonderland.  Its pretty much the bare bones, but if u listen to the song
itll all make sense.  The solo is right, and the rest works fine. And if ne one
can put up some more phantom planet tabs, thatd be awesome.


guitar:

	e---------------
	B---------------
	G----3-5---7-5-- (x10)
	D--1-----1------
	A---------------
	E---------------
	
Sleigh bells ring, are you listenin. In the lane snow is glistenin
A beautiful sight, we're happy tonight, walking in a winter wonderland.
Gone away is the blue bird, here to stay, is the new bird,
He sings a love song as we go along, walking in a winter wonderland.

	e------------------------------------------------------------------
	B------------------------------------------------------------------
	G------------------------------------------------------------------
	D----3-1-3----3-1-3---3-1-3----3-1-3---2-0-2---2-0-2---2-0-2-------
	A--1--------1-------1--------1-------1-------1-------1-------1-----
	E--------------------------------------------------------------3-1-

In the meadow we can build a snowman, and pretend thats he's a parson brown.
He'll ask, are you married?, we'll say, no man, but you can do the job while your in town.
	
	e---------------
	B---------------
	G----3-5---7-5-- (x5)
	D--1-----1------
	A---------------
	E---------------


When its snows ain't it thrillin, though your nose gets a chillin
We'll frollick and play the eskimo way, walking in a winter wonderland.

solo:   E--------------------------------------------------------------
	A--------------------------------------------------------------
	D--8-8-8--8-8-5-8---8-8-8------------5-9-----------------------
	G-------------------------10-8-7-5-3-----10-12--15-12-10-8-6-5-
	B--------------------------------------------------------------
	e--------------------------------------------------------------

        E--------------------------------------------------------------
	A--------------------------------------------------------------
	D--------------------------------------------------------------
	G-8-8-6-6-6-5--------------------------------------------------
	B--------------------------------------------------------------
	e--------------------------------------------------------------


============================================================================

	e------------------------------------------------------------------
	B------------------------------------------------------------------
	G------------------------------------------------------------------
	D----3-1-3----3-1-3---3-1-3----3-1-3---2-0-2---2-0-2---2-0-2-------
	A--1--------1-------1--------1-------1-------1-------1-------1-----
	E--------------------------------------------------------------3-1-
	
In the meadow we can build a snowman, and pretend that he's a circus clown.
We'll have lots of fun with Mr. Snowman, until the other kiddies knock him down.
	
	e---------------
	B---------------
	G----3-5---7-5-- (x10)
	D--1-----1------
	A---------------
	E---------------

Later on we'll conspire as we dream by the fire, 
To face unafraid, the plans that we made, walkin in a winter wonderland.
Walking in a winter wonderland, walking in a winter wonderland, 
oh yea, walking in a winter wonderlannnnnnnddd.
            
Submit corrections

comments powered by Disqus
↑ Back to top | Phantom Planet Tabs for Winter Wonderland. Lyrics for acoustic guitar and electric guitar. 1 Tablatures and chords are parodies/interpretations of the original songs. You may use it for private study, scholarship, research or language learning purposes only