>
 >
Mouthful Of Diamonds

Mouthful Of Diamonds Guitar Tabs

Phantogram - Mouthful Of Diamonds chords, tabs, tablatures, lyrics

Guitar lessons | Add/correct | Request | Top 50 tabs Artists:  A B C D E F G H I J K L M N O P Q R S T U V W X Y Z 0-9

Mouthful Of Diamonds Guitar Tabs – Phantogram

CD, Sheet music, Poster

Do you like Mouthful Of Diamonds? Share with your friends now
ChordsTabsUkulele
Album:	Eyelid Movies
Label:  Barsuk Records



Josh - Guitar (Standard Tuning)

________________________
Intro:

	5 measures of rest...


________________________
Main Riff:

     Q    E  E  E  E  E  E      E  E  E   E  E  E  E  E
e||-------------0-----------|---------0---------0--------|
B||-------3--------3-----3--|------6---------8-----8-----|
G||--5-------5--------5-----|--/7--------/9-----------9--|
D||-------------------------|----------------------------|
A||-------------------------|----------------------------|
E||-------------------------|----------------------------|


    Q     E   E  E   E   E   E     E  E  E  E  E  E  E  E
-----------------0--------------|--------0-----------0-----|
---------10---------10------10--|-----8--------6--------6--|
--/12--------12---------12------|--9--------7-----7--------|
--------------------------------|--------------------------|
--------------------------------|--------------------------|
--------------------------------|--------------------------|


  Q    E  E  E  E  E  E      E  E  E   E  E  E  E  E
-------------0-----------|---------0---------0--------|
-------3--------3-----3--|------6---------8-----8-----|
--5-------5--------5-----|--/7--------/9-----------9--|
-------------------------|----------------------------|
-------------------------|----------------------------|
-------------------------|----------------------------|


** Note:  When Josh plays the song live, he frets the 12th fret
on the high E string in this next measure instead of playing it open.
You can too if you want. (On the tab, I've placed the note in braces):

    Q     E   E  E   E   E   E     E  E  E  E  E  E  E  E     W
----------------{0}-------------|--------0--------0--------|----------|
---------10---------10------10--|-----8--------6-----6-----|----------|
--/12--------12---------12------|--9--------7-----------7--|--5-------|
--------------------------------|--------------------------|----------|
--------------------------------|--------------------------|----------|
--------------------------------|--------------------------|----------|

___________________________
Verse ("Wake up..."):

	No guitar

___________________________
Chorus ("You've got a mouth full of diamonds..."):


   E   E  E   E   E   E  E   E      E   E  E   E   E   E  E   E
----------0--------------0------|----------0--------------0------|
------13-----13------13-----13--|------12-----12------12-----12--|
--14-------------14-------------|--14-------------14-------------|
--------------------------------|--------------------------------|
--------------------------------|--------------------------------|
--------------------------------|--------------------------------|


   E   E  E   E   E   E  E   E      E   E  E   E   E   E  E   E
----------0--------------0------|----------0--------------0------|
------10-----10------10-----10--|------10-----10------10-----10--|
--12-------------12-------------|--12-------------12-------------|
--------------------------------|--------------------------------|
--------------------------------|--------------------------------|
--------------------------------|--------------------------------|


   E   E  E   E   E   E  E   E      E   E  E   E   E   E  E   E
----------0--------------0------|----------0--------------0------|
------13-----13------13-----13--|------12-----12------12-----12--|
--14-------------14-------------|--14-------------14-------------|
--------------------------------|--------------------------------|
--------------------------------|--------------------------------|
--------------------------------|--------------------------------|


   E   E  E   E   E   E  E   E      E   E  E   E   E   E  E   E
----------0--------------0------|----------0--------------0------|
------10-----10------10-----10--|------10-----10------10-----10--|
--12-------------12-------------|--12-------------12-------------|
--------------------------------|--------------------------------|
--------------------------------|--------------------------------|
--------------------------------|--------------------------------|


  E  E  E  E   E  E  E  E     E  E  E  E   E  E  E  E  
--------0------------0-----|--------0------------0-----|
-----6-----6------8-----8--|-----6-----6------8-----8--|
--7-----------/9-----------|--7-----------/9-----------|
---------------------------|---------------------------|
---------------------------|---------------------------|
---------------------------|---------------------------|


  E  E  E  E   E  E  E  E      E  E  E  E    E   E  E   E
--------0------------0-----|---------0--------------0------|
-----3-----3------6-----6--|------8-----8-------10-----10--|
--5-----------/7-----------|--/9-----------/12-------------|
---------------------------|-------------------------------|
---------------------------|-------------------------------|
---------------------------|-------------------------------|

__________________________
Main Riff x1

__________________________
Verse x4 ("Wasted..."):

Note: This might not be entirely accurate.
Do whatever you think sounds good.


  E  E  E  E  E  E  E  E     E  E  E  E  E  E  E  E  
--------------------------|--------------------------|
--5--5--5--5--5--5--5--5--|--5--5--5--6--6--6--6--6--|
--5--5--5--5--5--5--5--5--|--5--5--5--5--5--5--5--5--|
--------------------------|--------------------------|
--------------------------|--------------------------|
--------------------------|--------------------------|


  E  E  E  E  E  E  E  E     E  E  E  E  E  E  E  E
--------------------------|--------------------------|
--5--5--5--5--5--5--5--5--|--5--5--5--3--3--3--3--3--|
--5--5--5--5--5--5--5--5--|--5--5--5--5--5--5--5--5--|
--------------------------|--------------------------|
--------------------------|--------------------------|
--------------------------|--------------------------|

__________________________
2nd Chorus

	No guitar

__________________________
Main Riff x3


Duration Legend
---------------
W - whole
H - half
Q - quarter
E - 8th


Tablature Legend
----------------
/ -  slide into from below or out of upwards





Comments


Popular Phantogram tabs & chords
As Far As I Can See Chords
Mouthful Of Diamonds Chords
Nightlife Chords
When Im Small Intro Chords
A Dark Tunnel Intro Tabs
Futuristic Casket Tabs
You Are The Ocean Tabs
As Far As I Can See Ukulele
Nightlife Ukulele
When Im Small Intro Ukulele


Song lyrics



↑ Back to top | Tablatures and chords are parodies/interpretations of the original songs. You may use it for private study, scholarship, research or language learning purposes only
© 2014 AZChords.com Contact us | Privacy policy | DMCA | Add/correct tabs | Request tabs | Top 50 tabs