>
 >
Love Is A Catastrophe

Love Is A Catastrophe Chords

Pet Shop Boys - Love Is A Catastrophe chords, tabs, tablatures, lyrics

Guitar lessons | Add/correct | Request | Top 50 tabs Artists:  A B C D E F G H I J K L M N O P Q R S T U V W X Y Z 0-9

Love Is A Catastrophe Chords – Pet Shop Boys

CD, Sheet music, Poster

Do you like Love Is A Catastrophe? Share with your friends now
ChordsUkulele
---------------------------------------------------------------------------
---------------------------------------------------------------------------
Tuning: Standard

Pet Shop Boys
Love is a Catastrophe (2002)
(Tennant/Lowe)



---------------------------------------------------------------------------

INTRO/VERSES

  Am7(add9)                 E7sus4
e|------------|------------|------------|------------|
B|------1---0-|------1---0-|------0-----|------0-----|
G|----0-------|----0-------|----------2-|----------2-|
D|--2---------|--2---------|--0-2-------|--0-2-------|
A|0-----------|0-----------|------------|------------|
E|------------|------------|0-----------|0-----------|

  Am7(add9)                 E7sus4
e|------------|------------|------------|------------|
B|------1---0-|------1---0-|------0-----|------0-----|
G|----0-------|----0-------|----------2-|----------2-|
D|--2---------|--2---------|--0-2-------|--0-2-------|
A|0-----------|0-----------|------------|------------|
E|------------|------------|0-----------|0-----------|

  Cadd9                   Fmaj7/6
e|------------|------------|------0-----|------0-----|
B|------3---1-|------3---1-|----------3-|----------3-|
G|----0-------|----0-------|----2-------|----2-------|
D|--2---------|--2---------|--3---------|--3---------|
A|3-----------|3-----------|------------|------------|
E|------------|------------|1-----------|1-----------|

  Bdim(?)                   E7(5+)
e|------------|------------|------------|------------|
B|----0-3---1-|----0-3---1-|------3---1-|------1---0-|
G|------------|------------|----1-------|----1-------|
D|--3---------|--3---------|--2---------|--2---------|
A|2-----------|2-----------|------------|------------|
E|------------|------------|0-----------|0-----------|


MIDDLE 8
  F(#11)                    Am(add9)
e|------------|------------|------------|------------|
B|------1---0-|------1---0-|------0-----|------0-----|
G|----2-------|----2-------|----2-----2-|----2-----2-|
D|--3---------|--3---------|--2---------|--2---------|
A|------------|------------|0-----------|3-----------|
E|1-----------|1-----------|------------|------------|


---------------------------------------------------------------------------
6/8 time

INTRO
| Am7add9 | % | E7sus4 | % |
| Am7add9 | % | E7sus4 | % |
| Cadd9 | % | Fmaj7/6| % |
| Bdim(?) | % | E7/5+ |


Am7add9     E7sus4
Love is a catastrophe
Am7add9        E7sus4
Look what it's done to me
Cadd9                   Fmaj7/6
Brought me down here so low
Bdim(?)      E7/5+      [Am7add9]
   Stranded, nowhere to go

Am7add9      E7sus4
    No concentration 
Am7add9                 E7sus4
   Just rerunning conversation 
Cadd9          Fmaj7/6
Trying to understand 
Bdim(?)      E7/5+   [Am7add9]
How I fell into this quicksand

Am7add9         E7sus4
   What happens next?
Am7add9                E7sus4
    With life I'm unimpressed
Cadd9                Fmaj7/6
Pain like a cutter's knife
Bdim(?)        E7/5+         [Am7add9]
   Never been lonelier in my life

SOLO
| Am7add9 | % | E7sus4 | % |
| Am7add9 | % | E7sus4 | % |
| Cadd9 | % | Fmaj7/6| % |
| Bdim(?) | % | E7/5+ |


Am7add9              E7sus4
   Who issued the instruction
Am7add9                   E7sus4
    For this mad act of destruction?
Cadd9             Fmaj7/6
    An end to equilibrium
Bdim(?)        E7/5+              [Am7add9]
Fate laughs:       Look what we've done to him


Am7add9                 E7sus4
  High wind through the trees
Am7add9              E7sus4
    Falling November leaves
  Cadd9            Fmaj7/6
A weak sun hanging low
Bdim(?)       E7/5+         [Am7add9]
       Summer seems              so long ago

| Am7add9 | % | E7sus4 | % |

F(#11)        Am(add9)
All my former dreams 
F(#11)          Am(add9)
Tender romantic schemes 
  F(#11)         Am(add9)
Revealed as so naive 
   F(#11)          Am(add9)
To think I could believe


   Am7add9             E7sus4
In love as the kindest law 
Am7add9     E7sus4
Not as a declaration of war 
Cadd9          Fmaj7/6
On my life and sanity 
Bdim(?)       E7/5+    Am7add9
Now I know at last for me 
            Am7
Love is a catastrophe





Comments


Popular Pet Shop Boys tabs & chords
Dreaming Of The Queen Chords
E-mail Chords
I Dont Know What You Want But I Cant Give It Any Chords
So Sorry I Said Chords
What Have I Done To Deserve This? Chords
Your Funny Uncle Chords
Go West Tabs
Did You See Me Coming Ukulele
I Cried For Us Ukulele
You Choose Ukulele


Song lyrics



↑ Back to top | Tablatures and chords are parodies/interpretations of the original songs. You may use it for private study, scholarship, research or language learning purposes only
© 2014 AZChords.com Contact us | Privacy policy | DMCA | Add/correct tabs | Request tabs | Top 50 tabs