» » »

Pet Shop Boys, Home And Dry Chords (ver.1)

Artists:  A B C D E F G H I J K L M N O P Q R S T U V W X Y Z # 

Home And Dry Chords (ver.1)

Pet Shop Boys Tabs
Rating:
0/5 (0 votes)
Home And Dry lessons Tabs too difficult? Try these video lessons and learn fast
                Hallo, my name is Vladimir, Im from Serbia.
Great one from Pet Shop Boys





                Pet Shop Boys - Home And Dry




Capo at 1st

Intro:

     C                D                G
e|----------------------------------------------------------------------|
B|----------------------------------------------------------------------|
G|----------------------------------------------------------------------|
D|-------5----------------5----------------5-----------------5----------|
A|---3-------3-5-3----5-------3-5-3------5------3-5-3------5-----3-5-3--|
E|-----3---3------------5---3----------3------3----------3-----3--------|


     C                D                Em
e|----------------------------------------------------------------------|
B|----------------------------------------------------------------------|
G|----------------------------------------------------------------------|
D|-------5----------------5----------------5-----------------5----------|
A|---3-------3-5-3----5-------3-5-3------2-----3-5-3------2------3-5-3--|
E|-----3---3------------5---3----------0-----0-----------0----0---------|




C      D             G
So my baby's on the road
                         C
doing business, selling loads
         D
charming everyone there
 Em
with the sweetest smile



      C       D
Oh tonight I miss you
      G
Oh tonight I wish you
          C              D
could be here with me but I won't see you
 Em
'til you've made it back again



C     D    G
Home and dry
C     D    Em
Home and dry




There's a plane at JFK
to fly you back from far away
all those dark and frantic
transatlantic miles


Oh tonight I miss you
Oh tonight I wish you
could be here with me but I won't see you
'til you've made it back again


Home and dry
Home and dry



 C    D
Far away
         G
through night and day
      C       D      Em
you fly long haul tonight
 C       D
Come to me
      G
you know I'll be here
  C       D      Em
when you call tonight


Oh tonight I miss you
Oh tonight I wish you
could be here with me but I won't see you
'til you've made it back again


Home and dry
Home and dry 



Used chords:

           EADGBe
C----------x32010
D----------xx0232
G----------320033
Em---------022000
            
Submit corrections

comments powered by Disqus
↑ Back to top | Pet Shop Boys Chords for Home And Dry. Lyrics for acoustic guitar and electric guitar. Tablatures and chords are parodies/interpretations of the original songs. You may use it for private study, scholarship, research or language learning purposes only