» » »

Pet Shop Boys, Go West Tabs (ver.1)

Artists:  A B C D E F G H I J K L M N O P Q R S T U V W X Y Z # 

Go West Tabs (ver.1)

Pet Shop Boys Tabs
 Rating:
4/5 (4 votes)
Go West lessons Tabs too difficult? Try these video lessons and learn fast
                -------------------------------------------------------------------------------
-------------------------------------------------------------------------------

Tuning: Stantard



e|----0----------0-----------------------------------------------------------|
B|------------------1----3--0-------------1-1--------1-------0---------------|
G|--0---0-----------------------0-------------2---------2----------0---------|
D|----------------------------------------------------------------------2----|
A|---------------------------------------------------------------------------|
E|---------------------------------------------------------------------------|
    Together     we will go our way.      Together   we will leave some day.


e|-----------------------------------------------------------0----1----------|
B|-----------------------------1----------1-1-----------1-------------3------|
G|--2-2---------------------0-----------------2------2-----------------------|
D|------3-------3---3----2---------------------------------------------------|
A|---------------------------------------------------------------------------|
E|---------------------------------------------------------------------------|
    Together    you hand in my hand.      Together   we will make the plans.


e|----0----------0-----------------------------------------------------------|
B|------------------1----3---0-------------1-1------1--------0---------------|
G|--0---0-----------------------0--------------2---------2-----------0-------|
D|-----------------------------------------------------------------------2---|
A|---------------------------------------------------------------------------|
E|---------------------------------------------------------------------------|
    Together     we will fly so high.      Together tell our friends goodbye.


e|------------------------------------------------------------0----1---------|
B|----------------------------------1------1-1-------------1-------------3---|
G|--2-2------------------------0---------------2------2----------------------|
D|------3-------3---3----2---------------------------------------------------|
A|---------------------------------------------------------------------------|
E|---------------------------------------------------------------------------|
    Together    we  will start life new.   Together   this is what we'll do.


e|-----0---------------------------------------------------------------------|
B|-----1-------3----1--3----0-----------------1-----------1-------0----------|
G|--0---------------------------0----------0--2----------------2---0---------|
D|---------------------------------------------------------------------2-----|
A|---------------------------------------------------------------------------|
E|---------------------------------------------------------------------------|
    Go west,   life is peaseful there.     Go west        lots of open air.


e|------------------------------------------------------0----1---------------|
B|--------------------------1---------1--1------1----1-------------3---------|
G|-----2----------------0-------------0--------------------------------------|
D|--2--3------3--3-2---------------------------------------------------------|
A|---------------------------------------------------------------------------|
E|---------------------------------------------------------------------------|
    Go west   to begin life new.      Go west   this is what we'll do.




e|----0--------0-------------------------------------------------------------|
B|----------------1----3----0-------------1-1--------1-------0---------------|
G|--0---0-----------------------0-------------2---------2---------0----------|
D|--------------------------------------------------------------------2------|
A|---------------------------------------------------------------------------|
E|---------------------------------------------------------------------------|
    Together   we will love the beach.    Together   we will love and teach.


e|-----------------------------------------------------------0----1----------|
B|----------------------------------1-----1-1-----------1-------------3------|
G|--2-2--------------------------0------------2------2------------0----------|
D|------3-------3------3---2---------------------------------3---------------|
A|---------------------------------------------------------------------------|
E|---------------------------------------------------------------------------|
    Together    change our place of life. Together   we will work and strive.


e|----0-----------0----------------------------------------------------------|
B|-------------------1---3---0-----------1-1----------1-------0--------------|
G|--0------0----------------------0-------------2--------2--------0----------|
D|---------------------------------------------------------------------2-----|
A|---------------------------------------------------------------------------|
E|---------------------------------------------------------------------------|
    I Love you,   I know you love me     I want you   happy   and care free.


e|------------------------------------------------------------0--1-----------|
B|---------------------------------1----1----1-------0---1----------3--------|
G|--2--2------------------------0----------------2---------------------------|
D|------------3-------3-3----2-----------------------------------------------|
A|---------------------------------------------------------------------------|
E|---------------------------------------------------------------------------|
    So that's why     I have no protest when you say you want to go west.



e|-----0---------------------------------------------------------------------|
B|-----1-------3----1--3----0-----------------1-----------0-------0----------|
G|--0---------------------------0----------0--2----------------2---0---------|
D|---------------------------------------------------------------------2-----|
A|---------------------------------------------------------------------------|
E|---------------------------------------------------------------------------|
    Go west,   life is peaseful there.     Go west        lots of open air.


e|------------------------------------------------------0----1---------------|
B|--------------------------1------------1------1------------------3---------|
G|-----2----------------0-------------0--2-----------2-------2---------------|
D|--2--3------3--3-2---------------------------------------------------------|
A|---------------------------------------------------------------------------|
E|---------------------------------------------------------------------------|
    Go west   to begin life new.      Go west   this is what we'll do.


e|-----0---------------------------------------------------------------------|
B|-----1-------3---1--3--0----------------1-----------0-------0--------------|
G|--0------------------------0---------0--2--------------2-------0-----------|
D|----------------------------------------------------------------------2----|
A|---------------------------------------------------------------------------|
E|---------------------------------------------------------------------------|
    Go west,   sun in winter time.     Go west        we will do just fine.


e|-----------------------------------------------------------------0--1------|
B|-------------------------------1----------1--1-----1----1--------1--1--3---|
G|-----2----------------------0-------------0--2--------------2--------------|
D|--2--3------3-----3---2----------------------------------------------------|
A|---------------------------------------------------------------------------|
E|---------------------------------------------------------------------------|
    Go west   where the skies are blue.     Go west  this and more we'll do.



e|---------------------------------------------------------------------------|
B|--0-0-0---0-1----0---------------------------------------------------------|
G|--------2----------2---------0--0--0-0--2--0---2---------------------------|
D|---------------------------2---------------2---3--2------------------------|
A|---------------------------------------------------------------------------|
E|---------------------------------------------------------------------------|


e|-------------------------------------------------0--1----------------------|
B|--0--0--------0--1--0-----0--1----------------1--------3-------------------|
G|--------2--------------2-------------------2-------------------------------|
D|---------------------------------------------------------------------------|
A|---------------------------------------------------------------------------|
E|---------------------------------------------------------------------------|



e|----0------------0---------------------------------------------------------|
B|-----------------------1---3-0-----------1--1----------1-------0-----------|
G|--0------0----------------------0----------------2--------2----2--0--------|
D|---------------------------------------------------------------------2-----|
A|---------------------------------------------------------------------------|
E|---------------------------------------------------------------------------|
    I know that    there are many ways     to live there in the sun or shade.


e|-------------------------------------------------------------0----1--------|
B|-----------------------------1-------1--1-----------0---1-------------3----|
G|--2-2---------------------0--------------------2---------------------------|
D|------3----3---3----2------------------------------------------------------|
A|---------------------------------------------------------------------------|
E|---------------------------------------------------------------------------|
    Together we  will find  a  place   to seddle down and live with the space


e|------0-------0------------------------------------------------------------|
B|----------------1--3-----0----------1---1---------1--------0---------------|
G|--0-------0-------------------0-------------2---------2-------0------------|
D|------------------------------------------------------------------2--------|
A|---------------------------------------------------------------------------|
E|---------------------------------------------------------------------------|
    without the busy place back east, the hustling, rustling of the feet,


e|---------------------------------------------------------0-----1-----------|
B|------------------------------1----1--1-------0----1--------------1--------|
G|--2-2-------------------0------------------2-------------------------------|
D|---------3-----3--3--2-----------------------------------------------------|
A|---------------------------------------------------------------------------|
E|---------------------------------------------------------------------------|
    I know I'm   ready to leave too, so this is what we're going to do,


e|-----2-----0----0--0-------------------------------------------------------|
B|-----3------------------1----------------------0----1----0--1--------------|
G|--2-------------------------2---------------2----------------2---3---------|
D|---------------------------------------------------------------------------|
A|---------------------------------------------------------------------------|
E|---------------------------------------------------------------------------|
    Go west  life is peaceful there.         Go west lots of open air.


e|-----------------------------------------------------1----3-----0----------|
B|-----0------------------3-----------3--3-----0----3------------------------|
G|-----0----0--0-----2----------------2--------------------------------------|
D|--3------------3-----------------------------------------------------------|
A|---------------------------------------------------------------------------|
E|---------------------------------------------------------------------------|
    Go west to begin life new.        Go west, this is what we'll do.


e|--0--------------------------------------0----------------------1--3--0----|
B|-----3------------------------3-------------3-----3----3---0---------------|
G|----------0---------------2------------------------------------------------|
D|----------------2---3------------------------------------------------------|
A|---------------------------------------------------------------------------|
E|---------------------------------------------------------------------------|
    Go west where the skies are blue.      Go west, this and more we'll do.


e|-----1-----0-------0-------------------------------------------------------|
B|-----3----------3-------1------------------3-----1----0--1-----------------|
G|--2-------------------------2-----------2-----------------2----------------|
D|--------------------------------------------------------------3------------|
A|---------------------------------------------------------------------------|
E|---------------------------------------------------------------------------|
    Go west, life is peaceful there.      Go west, lots of open air.


e|-------------------------------------------------------1--3--0-------------|
B|-----0------------------3---------3--3----3----3--0------------------------|
G|-----0----0--0-----2--------------2----------------------------------------|
D|--3------------3-----------------------------------------------------------|
A|---------------------------------------------------------------------------|
E|---------------------------------------------------------------------------|
    Go west to begin life new.      Go west this is what we'll do.


| /  slide up
| \  slide down
| h  hammer-on
| p  pull-off
| ~  vibrato
| +  harmonic
| x  Mute note
===============================================================================
            
Submit corrections

comments powered by Disqus
↑ Back to top | Pet Shop Boys Tabs for Go West. Lyrics for acoustic guitar and electric guitar. Tablatures and chords are parodies/interpretations of the original songs. You may use it for private study, scholarship, research or language learning purposes only