» » »

Domino Dancing Chords (ver.1)

Artists:  A B C D E F G H I J K L M N O P Q R S T U V W X Y Z # 

Domino Dancing Chords (ver.1)

Pet Shop Boys
Rating:
5/5 (2 votes)

Hard to play? Try these video lessons and learn fast.
                Hallo, my name is Vladimir, Im from Serbia.
...can not believe that this song hasn't been tabbed!





                  Pet Shop Boys - Domino Dancing




(All day, all day)


Intro:

     Am       F          G           Am
e|------------------5------------------------------|
B|-----5-3-5------5---5-------5-3-5------3--0-1----|
G|---2--------2-2-----------2--------2-2-----------|
D|-------------------------------------------------|
A|-------------------------------------------------|
E|-------------------------------------------------|

Also through intro goes these chords:

Am, F, G, Am
Dm, G, Em, Am



Am            F  G              Am
I don't know why, I don't know how
Am           F             G             Am
I thought I loved you, but I'm not sure now
Dm             G               Em         Am
I've seen you look at strangers too many times
Dm         G            Em            Am
A love-you-once is of a, a different kind



Remember when we felt the sun
A love like paradise, how hot it burned
A threat of distant thunder, the sky was red
And when you walked, you always - turned every head



F              G    Em        Am
(All day, all day) Watch them all fall down
F              G    Em     Am
(All day, all day) Domino dancing
F              G    Em        Am
(All day, all day) Watch them all fall down
F              G    Em     Am
(All day, all day, domino dancing)



Solo:

     Dm     G        Em        Am      Dm     G        Em        Am
e|-------------------------------------------------------------------|
B|---5-5--5-5--1-1-5----5-5--3-5-------5-5--5-5--1-1-5----5-5--3-5---|
G|-------------------------------------------------------------------|
D|-------------------------------------------------------------------|
A|-------------------------------------------------------------------|
E|-------------------------------------------------------------------|



I thought that when we fought I was to blame
But now I know you play a different game
I've watched you dance with danger, still wanting more
Add another number to the score



(All day, all day) Watch them all fall down
(All day, all day) Domino dancing
(All day, all day) Watch them all fall down
(All day, all day, domino dancing)



C                            D
When you look around you wonder
                 C
Do you play to win?
                       D
Or are you just a bad loser?


F, G, F, G


Solo:

e|-------------------------|
B|------5----------3-------|
G|-----5--5-------4--4-5---|
D|----7-----3----5---------|
A|---7----------5----------|
E|-------------------------|



(All day, all day)
(All day, all day)


I don't know why, I don't know how
I thought I loved you but I'm not sure now
I hear the thunder crashing, the sky is dark
And now a storm is breaking within my heart


(All day, all day) Watch them all fall down
(All day, all day) Domino dancing
(All day, all day) Watch them all fall down
(All day, all day, domino dancing)


(All day, all day) Watch them all fall down
(All day, all day) Domino dancing
(All day, all day) Watch them all fall down
(All day, all day, domino dancing)


(All day, all day) Watch them all fall down
(All day, all day) Domino dancing
(All day, all day) Watch them all fall down
(All day, all day)



Used chords:

           EADGBe
Am---------x02210
F----------133211
G----------320033
Dm---------xx0231
Em---------022000
C----------x32010
D----------xx0232
            
Hard to play? Try these video lessons and learn fast. | Correct




comments powered by Disqus
↑ Back to top | Tablatures and chords are parodies/interpretations of the original songs. You may use it for private study, scholarship, research or language learning purposes only