» » »

Puff The Magic Dragon Tabs (ver.1)

Artists:  A B C D E F G H I J K L M N O P Q R S T U V W X Y Z # 

Puff The Magic Dragon Tabs (ver.1)

Peter Paul And Mary
Rating:
0/5 (0 votes)

Hard to play? Try these video lessons and learn fast.
                
   this is just one verse but it just repeats throught the hole song

capo 2 fret

   G          Bm               C                  G
E|--3-------3-----2-------2--------0------3-----------3------3--------||
B|--------0---0--------3----3-----------1----1-------------0---0------||
G|-----0-------------4---------------0-------------------0------------||
D|--------------------------------------------------------------------||
A|----------------2-------2--------3------3---------------------------||
E|--3-------3-----------------------------------------3------3--------||

       C          G            A7        D          G

E|--3----3--------3-----3------0-----0-----2------||
B|------1---1----------------------2----2---------||
G|----0---------------0----0-----0----------------||
D|-----------------------------------------0------||
A|--3----3---------------------0------------------||
E|----------------3-----0-------------------------||


   G          Bm               C                  G
E|--3-------3-----2-------2--------0------3-----------3------3--------||
B|--------0---0--------3----3-----------1----1-------------0---0------||
G|-----0-------------4---------------0-------------------0------------||
D|--------------------------------------------------------------------||
A|----------------2-------2--------3------3---------------------------||
E|--3-------3-----------------------------------------3------3--------||

       C          G            A7     D   G          

E|--3----3--------3-----3------0-------2---3-------||
B|------1---1----------------------0h1-------------||
G|----0---------------0----0-----0-----------------||
D|-------------------------------------------------||
A|--3----3---------------------0-------------------||
E|----------------3-----0------------------3-------||
            
Hard to play? Try these video lessons and learn fast. | Correct




comments powered by Disqus
↑ Back to top | Tablatures and chords are parodies/interpretations of the original songs. You may use it for private study, scholarship, research or language learning purposes only