>
 >
Leaving On A Jetplane

Leaving On A Jetplane Bass Tabs

Peter Paul And Mary - Leaving On A Jetplane chords, tabs, tablatures, lyrics

Guitar lessons | Add/correct | Request | Top 50 tabs Artists:  A B C D E F G H I J K L M N O P Q R S T U V W X Y Z 0-9

Leaving On A Jetplane Bass Tabs – Peter Paul And Mary

CD, Sheet music, Poster

Do you like Leaving On A Jetplane? Share with your friends now
Bass TabsChordsUkulele
peter, paul and mary_leaving on a jetplane

TablEdited by Jan Bjorklund   
You are welcome to request for tabs!
Fingering and positions as suggested by TablEdit, please use common sense.


TablEdited by Jan Bjorklund
Tuning : E A D G 	Time Signature: 4/4

 |       |       |       |        |       |       |       |        
|7-------------------------------|7-------------------------------|
|--------------------------------|--------------------------------|
|5-------------------5---5---5---|--------------------------------|
|--------------------------------|--------------------------------|

 |       |       |       |        |       |       |       |        
|7-------------------------------|7-------------------------------|
|--------------------------------|--------------------------------|
|5-------------------5---5---5---|--------------------------------|
|--------------------------------|--------------------------------|

 |       |       |       |        |       |       |       |        
|----------------7---------------|----------------9---------------|
|5-------------------------------|10------------------------------|
|--------------------------------|--------------------------------|
|--------------------------------|--------------------------------|

 |       |       |       |        |       |       |       |        
|----------------7---------------|----------------9---------------|
|5-------------------------------|10----------------------10------|
|--------------------------------|--------------------------------|
|--------------------------------|--------------------------------|

 |       |       |       |        |       |       |       |        
|----------------7---------------|----------------9---------------|
|5-------------------------------|10------------------------------|
|--------------------------------|--------------------------------|
|--------------------------------|--------------------------------|

 |       |       |       |        |       |       |       |        
|7-------------------------------|7-------------------------------|
|----------------7-----------7---|----------------7---------------|
|--------------------------------|--------------------------------|
|--------------------------------|--------------------------------|

 |       |       |       |        |       |       |       |        
|----------------7---------------|----------------9---------------|
|5-------------------------------|10------------------------------|
|--------------------------------|--------------------------------|
|--------------------------------|--------------------------------|

 |       |       |       |        |       |       |       |        
|7---------------7---------------|7-------5-------4---------------|
|--------7---------------7-------|------------------------7-------|
|--------------------------------|--------------------------------|
|--------------------------------|--------------------------------|

 |       |       |       |        |       |       |       |        
|--------7---------------4-------|5-----------------------5-------|
|5---------------5---------------|----------------5---------------|
|--------------------------------|--------------------------------|
|--------------------------------|--------------------------------|

 |       |       |       |        |       |       |       |        
|--------7---------------4-------|5-----------------------5-------|
|5---------------5---------------|----------------5---------------|
|--------------------------------|--------------------------------|
|--------------------------------|--------------------------------|

 |       |       |       |        |       |       |       |        
|--------7---------------4-------|5---------------5---------------|
|5---------------5---------------|--------------------------------|
|--------------------------------|--------------------------------|
|--------------------------------|--------------------------------|

 |       |       |       |        |       |       |       |        
|7-------------------------------|7-------------------------------|
|----------------7-----------7---|----------------7---------------|
|--------------------------------|--------------------------------|
|--------------------------------|--------------------------------|

 |       |       |       |        |       |       |       |        
|----------------12--------------|5-----------------------5-------|
|--------12--------------12------|----------------5---------------|
|10------------------------------|--------------------------------|
|--------------------------------|--------------------------------|

 |       |       |       |        |       |       |       |        
|------------12------------------|4-----------------------5-------|
|--------12--------------12------|----------------5---------------|
|10------------------------------|--------------------------------|
|--------------------------------|--------------------------------|

 |       |       |       |        |       |       |       |        
|------------12------------------|--------9---12----------9-------|
|--------12----------------------|10------------------------------|
|10------------------------------|--------------------------------|
|--------------------------------|--------------------------------|

 |       |       |       |        |       |       |       |        
|7-------------------------------|7-------------------------------|
|--------7-----------------------|--------7-----------------------|
|------------5-------------------|------------5-------------------|
|--------------------------------|--------------------------------|

 |       |       |       |        |       |       |       |        
|7-------------------------------|7-------------------------------|
|--------7-----------------------|--------7-----------------------|
|------------5-------------------|------------5-------------------|
|--------------------------------|--------------------------------|

 |       |       |       |        |       |       |       |        
|----------------9---------------|----------------7---------------|
|10------------------------------|5-------------------------------|
|--------------------------------|--------------------------------|
|--------------------------------|--------------------------------|

 |       |       |       |        |       |       |       |        
|7-------------------------------|7-------------------------------|
|----------------7-----------7---|----------------7---------------|
|--------------------------------|--------------------------------|
|--------------------------------|--------------------------------|

 |       |       |       |        |       |       |       |        
|----------------12--------------|5-----------5-----------5-------|
|--------12--------------12------|--------------------------------|
|10------------------------------|--------------------------------|
|--------------------------------|--------------------------------|

 |       |       |       |        |       |       |       |        
|------------12------------------|5-----------5-------------------|
|--------12----------------------|--------------------------------|
|10------------------------------|--------------------------------|
|--------------------------------|--------------------------------|

 |       |       |       |        |       |       |       |        
|------------12------------------|5---------------5---------------|
|--------12----------------------|--------5---------------5-------|
|10------------------------------|--------------------------------|
|--------------------------------|--------------------------------|

 |       |       |       |        |       |       |       |        
|5---------------5---------------|7-------------------------------|
|--------5-----------------------|--------7-----------------------|
|--------------------------------|------------5-------------------|
|--------------------------------|--------------------------------|

 |       |       |       |        |       |       |       |        
|7-------------------------------|7-------------------------------|
|--------7-----------------------|--------7-----------------------|
|------------5-------------------|------------5-------------------|
|--------------------------------|--------------------------------|

 |       |       |       |        |       |       |       |        
|7-------------------------------|7-------------------------------|
|--------7-----------------------|--------------------------------|
|------------5-------------------|5-------------------5---5---5---|
|--------------------------------|--------------------------------|

 |       |       |       |        |       |       |       |        
|7-------------------------------|7-------------------------------|
|--------------------------------|--------------------------------|
|--------------------------------|--------------------------------|
|--------------------------------|--------------------------------|





Comments


Popular Peter Paul And Mary tabs & chords
Dont Ever Take Away Our Freedomlane Chords
Lemon Tree Chords
The Kid Chords
Wedding Song Chords
Five Hundred Miles Tabs
Rich Man, Poor Man 1 Tabs
Right Field Tabs
Soalin Tabs
Well Well Well Tabs
Early Morning Rain Ukulele


Song lyrics



↑ Back to top | Tablatures and chords are parodies/interpretations of the original songs. You may use it for private study, scholarship, research or language learning purposes only
© 2014 AZChords.com Contact us | Privacy policy | DMCA | Add/correct tabs | Request tabs | Top 50 tabs