» » »

Wagon Wheel Tabs (ver.3)

Artists:  A B C D E F G H I J K L M N O P Q R S T U V W X Y Z # 

Wagon Wheel Tabs (ver.3)

Old Crow Medicine Show
Rating:
0/5 (0 votes)

Tabs too difficult? Try these video lessons and learn fast.
                (3)
Here is how I play this song. The violin section sounds close enough and you can kind of 
alter it to your liking by using the scales.

-Standard Tuning
-Capo on 2nd Fret


Slide Up:    /
Slide Down:  \
Hammer On:   ^
Pull Off:    *


Intro Chords:
G - D - Em - C
G - D - C - C

[^^These chords are repeated throughout the whole song in this order]


Violin Intro: This tab is in ordinance to the capo.


|-------------------------------------------------------------------------------------|
|-------------------------------------------------------------------------------------|
|---------------------7--7------------------------------------------------------------|
|----7--5--7--5--7/9-------9--9/10\9--9--7--7----7--7^9*7--5--5---------5----5--5-----|
|-------------------------------------------------------------------5--7----7---------|
|-------------------------------------------------------------------------------------|


|----------------------------------------------------------------------------------------|
|----------------------------------------------------------------------------------------|
|------------7----7--9--7-----------------------7/9--7-----7-----------------------------|
|---5--7--9----9-----------9--7--5--7--5--7--5----------9----7--5--5^7--7--5---------5---|
|------------------------------------------------------------------------------5-5^7-----|
|----------------------------------------------------------------------------------------|


|--------------------------------------------|
|--------------------------------------------|
|-----------7--------------------------------|
|---5--7/9-----7-7^9--7--5--7-7^9--7--5------|
|--------------------------------------------|
|--------------------------------------------|
            
Tabs too difficult? Try these video lessons and learn fast.




comments powered by Disqus
↑ Back to top | Tablatures and chords are parodies/interpretations of the original songs. You may use it for private study, scholarship, research or language learning purposes only