» » »

Peter Paul And Mary, A Soal In Cake Tabs (ver.2)

Artists:  A B C D E F G H I J K L M N O P Q R S T U V W X Y Z # 

A Soal In Cake Tabs (ver.2)

Peter Paul And Mary Tabs
 Rating:
4/5 (4 votes)
A Soal In Cake lessons Tabs too difficult? Try these video lessons and learn fast
                This is a version I learned in my guitar class.  It's nice cause it just gives some 
on the main theme.

E||-----------|--0-----2-----|--3--2--0-----|--0-----2-----|--3--5--7-----|
B||--------0--|-----0-----0--|-----------0--|-----0-----0--|-----------0--|
G||-----------|--------------|--------------|--------------|--------------|
D||-----------|--------------|--------------|--------------|--------------|
A||-----------|--------------|--------------|--------------|--------------|
E||-----------|--------------|--------------|--------------|--------------|

--0-----2-----|--3--2--0-----|--0-----2-----|--0----0-----|--0-----2-----|
-----0-----0--|-----------0--|-----0-----0--|----------0--|-----0-----0--|
--------------|--------------|--------------|-------------|--------------|
--------------|--------------|--------------|-------------|--2-----0-----|
--------------|--------------|--------------|-------------|--------------|
--------------|--------------|--------------|-------------|--------------|

--3--2--0-----|--0-----2-----|--3--5--7-----|--0-----2-----|--3--2--0-----|
-----------0--|-----0-----0--|-----------0--|-----0-----0--|-----------0--|
--------------|--------------|--------------|--------------|--------------|
--------------|--------------|--------------|--2-----0-----|--------------|
--3--2--3-----|--2-----0-----|--------------|--------------|--3--2--3-----|
--------------|--------------|--3--5--7-----|--------------|--------------|

--0-----2-----|--0-----0-----|--0--------2-----|--3--2--0-----|--0--------2----|
-----0-----0--|-----------0--|-------0-------0-|-----------0--|-------0-----3--|
--------------|--------------|-----0-------0---|--------------|-----0----------|
--------------|--------------|--2------0-------|--------------|----------------|
--2-----0-----|--------------|-----------------|--3--2--3-----|--2------0------|
--------------|--3--2--0-----|-----------------|--------------|----------------|

--3---5--7-----|--0--------2-----|--3--2--0-----|--0--------2-----|
----0-------0--|-------0-------0-|-----------0--|-------0-------0-|
---------------|-----0-------0---|--------------|-----0-------0---|
---------------|--2------0-------|--------------|-----------------|
---------------|-----------------|--3--2--3-----|--2------0-------|
--3---2--0-----|-----------------|--------------|-----------------|

--0-----0-----|--0-----0-2-----2-|--3--2--0-----|--0-----0-2-----2-|
-----------0--|------0-------0---|-----------0--|------0-------0---|
--------------|----0-------0-----|--------------|----0-------0-----|
--------------|--2-------0-------|--------------|------------------|
--------------|------------------|--3--2--3-----|--2-------0-------|
--3--2--0-----|------------------|--------------|------------------|

--3---5--7-----|--0-----0-2-----2-|--3--2--0-----|--0-----0-2-----2-|
----0-------0--|------0-------0---|-----------0--|------0-------0---|
---------------|----0-------0-----|--------------|----0-------0-----|
---------------|--2-------0-------|--------------|------------------|
---------------|------------------|--3--2--3-----|--2-------0-------|
--3---5--7-----|------------------|--------------|------------------|

--3--7--3-----||
--------12----||
--------21----||
--------------||
--------------||
--3--7--0-----||
            
Submit corrections

comments powered by Disqus
↑ Back to top | Peter Paul And Mary Tabs for A Soal In Cake. Lyrics for acoustic guitar and electric guitar. Tablatures and chords are parodies/interpretations of the original songs. You may use it for private study, scholarship, research or language learning purposes only