» » »

Peter Frampton, Black Hole Sun Tabs (ver.1)

Artists:  A B C D E F G H I J K L M N O P Q R S T U V W X Y Z # 

Black Hole Sun Tabs (ver.1)

Peter Frampton Tabs
Rating:
5/5 (15 votes)
Black Hole Sun lessons Tabs too difficult? Try these video lessons and learn fast
                -------------------------------------------------------------------------------
                             BLACK HOLE SUN – PETER FRAMPTON
-------------------------------------------------------------------------------
HOLLA, YOU WONT BE ABLE TO FIND THIS VERSION ON ANY TAB SITE, SO I’M TABING IT MYSELF. 
WAS A REAL HEADACHE TRYING TO FIGURE OUT, BUT IT’S A FUN SONG. THE ONLY THING I’M MISSING 
THE SOLO (HELP WOULD BE APRECIATED)
THERE ARE OTHER GUITARS PLAYING BUT I’LL IGNORE THEM FOR NOW.   ADRIAN

TUNING: DROP D
| /  slide up
| \  slide down
| h  hammer-on
| p  pull-off
| ~  vibrato
| +  harmonic
| x  Mute note
============================================================================

Clean
E|---------------------------------------------------------|
B|---------------------------------------------------------|
G|----6---------6---------6---------5----------4---------3-|
D|---6---6-----6---6-----4---4-----3----------2---2-----1--|
A|--6-----6---6-----6---4-----4---3----------2-----2---4---|
D|-6-------6-9-------9-4-------4-3--------1-2-------2-1----|

Wah and Distortion (LISTEN TO THE SONG TO KNOW WHEN TO USE THE WAH EFFECT)
E|---------------------------------------------------------------------------
B|---------------------------------------------------------------------------
G|---------------------------------------------------------------------------
D|--------------------------------------6------------------------------------
A|--------6-6h8v---------6-6h8v------6-8---8---------------------------------
D|--8/10-----------8/10---------8/10------------8p6h8-8\10v-6-8-9-11-9-8h9p8-

E|------------------|
B|------------------|
G|------------------|
D|------------------|
A|-------3-3-1-3\4v-|
D|-6-3-1------------|

E|----------------------------------------------------------
B|----4-4h6v----4-4h6h9-6v----4-4h6v-4------------6---------
G|-3\5------3-5------------3-5--------3p1-3p1-3\5---1-3-3\4-
D|----------------------------------------------------------
A|----------------------------------------------------------
D|----------------------------------------------------------

E|---------------------------|
B|-2-0-------------1-1----2/-|
G|-----3h4p3-1---------3-----|
D|-------------3-1-----------|
A|---------------------------|
D|---------------------------|

E|---------------------------------------------------------------------------------|
B|--------2-0----------1-------1\2/------------------------------------------------|
G|-1-3--4-----3h4p3------3-3-1-------1-3-3\6/4--1-1\4/3--4----1h3p1----------------|
D|-------------------1-------------------------------------3--------3—6\5----------|
A|---------------------------------------------------------------------------------|
D|---------------------------------------------------------------------------------|

E|---------------------------------------------------------------------------------|
B|-----4h6------4h6p4h6-----4/6b-4-6-------------------2-0--------------1-1—1/2----|
G|-3/5------3/5---------3/5-----------3/5—3/5\---1-3-4-----3h4p3--1---------3------|
D|------------------------------------------------------------------3-1------------|
A|---------------------------------------------------------------------------------|
D|---------------------------------------------------------------------------------|

E|--------------------------------------------------------------------------------
B|------16-16h18-------16-16h18-------16-16h18b-16-18--------------------------14-
G|-15/17----------15/17---------15/17-----------------15/17-15/17--13-15-15/16----
D|--------------------------------------------------------------------------------
A|--------------------------------------------------------------------------------
D|--------------------------------------------------------------------------------

E|---------------------------------------|
B|----------------------13-13—---13/14\--|
G|-16-15h16p15-13-------------15---------|
D|----------------15-13------------------|
A|---------------------------------------|
D|---------------------------------------|

E|-----------------------------------------------------------------------------
B|-------2---------1-------/2\-------------------------------------2b-0--------
G|-1-3-4----3h4p3-----3-3-1-----1-3-3/6\4--4----1h3p1—1h3p1--1-3-4------3h4p3--
D|----------------3-------------------------3----------------------------------
A|-----------------------------------------------------------------------------
D|-----------------------------------------------------------------------------

E|----------1\4-4-2-0---------------------------------|
B|---1---------------4--------------------------------|
G|-----3-3-1-----------1-3-3/6\4-1-3/4\3—3b-0-1h3p1---|
D|-3--------------------------------------------------|
A|----------------------------------------------------|
D|----------------------------------------------------|

E|-------------|
B|-------------|
G|-3b-0-1h3p1--|
D|-------------|
A|-------------|
D|-------------|

E|---------------|
B|-4-7-7/9-------|
G|---------3b-1--|
D|---------------|
A|---------------|
D|---------------|

E|-------------|
B|-------------|
G|-3b-0-1h3p1--|
D|-------------|
A|-------------|
D|-------------|



SOLO
E|---------------------------------------------------------------------------|
B|---------------------------------------------------------------------------|
G|---------------------------------------------------------------------------|
D|---------------------------------------------------------------------------|
A|---------------------------------------------------------------------------|
D|---------------------------------------------------------------------------|

E|----------------------------------4--------------|
B|-----4-4h6v ----4-4h6v ----4-4h6----4-6----------|
G|-3/5--------3/5--------3/5---------------3/5\3p1-|
D|-------------------------------------------------|
A|-------------------------------------------------|
D|-------------------------------------------------|

W/ TALK BOX
E|---------------------------------|
B|-------2-0---------1-------/2\---|
G|-1-3-4-----3h4p3-----3-3-1-------|
D|-----------------1---------------|
A|---------------------------------|
D|---------------------------------|
  BLACK HOLE SUN WON’T YOU COME

E|------------------|
B|-------2-0--------|
G|-1-3-4-----3h4p3--|
D|------------------|
A|------------------|
D|------------------|
  BLACK HOLE SUN WON’T YOU COME

E|-------------|
B|-------------|
G|-3b-0-1h3p1--|
D|-------------|
A|-------------|
D|-------------|
  WON’T YOU COME

E|-------------------------/4-3-2-0--|
B|-------2-0--------1----------------|
G|-1-3-4-----3h4p3----3-3-1----------|
D|-----------------1-----------------|
A|-----------------------------------|
D|-----------------------------------|
  BLACK HOLE SUN WON’T YOU COME

E|-------------------------------|
B|-------------------------------|
G|-1-3-3/6\4-1-3h4p3--4—--1h3p1--|
D|----------------------3--------|
A|-------------------------------|
D|-------------------------------|
  BLACK HOLE SUN WON’T YOU COME, WON’T YOU COME


E|-------------|
B|-3b---1h3p1--|
G|----3--------|
D|-------------|
A|-------------|
D|-------------|


E|-------------|
B|-------------|
G|-3b-1-1h3p1--|
D|-------------|
A|-------------|
D|-------------|

E|-------------|
B|-4-7-9-------|
G|-------3b-1--|
D|-------------|
A|-------------|
D|-------------|

E|-----------|
B|-----------|
G|-3-3b-3p1--|
D|-----------|
A|-----------|
D|-----------|

E|---------|
B|---------|
G|-3b-3-1--|
D|---------|
A|---------|
D|---------|

E|----------|
B|----------|
G|-3h4p3-1--|
D|----------|
A|----------|
D|----------|


E|--------------|
B|--4-7-9-------|
G|--------3b-1--|
D|--------------|
A|--------------|
D|--------------|

E|-------------|
B|-------------|
G|-3b-3-1h3p3--|
D|-------------|
A|-------------|
D|-------------|

E|--------|
B|--------|
G|-4/6-6--|
D|-4/6-6--|
A|-4/6-6--|
D|-4/6-6--|
            
Submit corrections

comments powered by Disqus
↑ Back to top | Peter Frampton Tabs for Black Hole Sun. Lyrics for acoustic guitar and electric guitar. Tablatures and chords are parodies/interpretations of the original songs. You may use it for private study, scholarship, research or language learning purposes only