» » »

Peter And Gordon, A World Without Love Bass tabs (ver.1)

Artists:  A B C D E F G H I J K L M N O P Q R S T U V W X Y Z # 

A World Without Love Bass tabs (ver.1)

Peter And Gordon Tabs
 Rating:
4.2/5 (5 votes)
A World Without Love lessons Tabs too difficult? Try these video lessons and learn fast
                Peter and Gordon
Written by John Lennon and Paul McCartney; released as a single with "If I 
Were You" as the B-side

Intro:
G|------- ------- ------- -------|------- ------- ------- -------|
D|-------------------------------|------------------------9------|
A|7-----------7------------------|7-----------7------------------|
E|----------------7--------------|----------------7--------------|


Verse:
G|------- ------- ------- -------|------- ------- ------- -------|
D|-------------------------------|-------------------------------|
A|7-----------7------------------|----------------6--------------|
E|----------------7--------------|4-----------4-----------4------|
  Please          lock me a - way,                            and


G|------- ------- ------- -------|------- ------- ------- -------|
D|----------------6--------------|----------------6--------------|
A|4-----------4------------------|4-----------4-----------4------|
E|-------------------------------|-------------------------------|
  don't       allow           the day                 Here in-


G|------- ------- ------- -------|------- ------- ------- -------|
D|-------------------------------|-------------------------------|
A|7-----------7------------------|----------------7--------------|
E|----------------7--------------|5-----------5-----------5------|
  side,                where I    hide                 with  my


G|------- ------- ------- -------|------- ------- ------- -------|
D|-------------------------------|-------------------------------|
A|7-----------7------------------|7-----------7-----------7------|
E|----------------7--------------|----------------7--------------|
  lone -  li- ness.                                   I   don't


G|------- ------- ------- -------|------- ------- ------- -------|
D|-------------------------------|-------------------------------|
A|----------------4--------------|----------------9--------------|
E|2-----------2-----------2------|7-----------7-----------7------|
  care what  they say, I    won't stay        in a world  without


G|------- ------- ------- -------|------- ------- ------- -------|
D|-------------------------------|-------------------------------|
A|7-----------7------------------|-------------------------------|
E|----------------7--------------|8-----------8---7-----------7--|
  love.

Verse:
G|------- ------- ------- -------|------- ------- ------- -------|
D|-------------------------------|-------------------------------|
A|7-----------7------------------|----------------6--------------|
E|----------------7--------------|4-----------4-----------4------|
  Birds           sing out of tune,                           and


G|------- ------- ------- -------|------- ------- ------- -------|
D|----------------6--------------|----------------6--------------|
A|4-----------4------------------|4-----------4-----------4------|
E|-------------------------------|-------------------------------|
  rain   -    clouds hide     the Moon,               I'm    o-


G|------- ------- ------- -------|------- ------- ------- -------|
D|-------------------------------|-------------------------------|
A|7-----------7------------------|----------------7--------------|
E|----------------7--------------|5-----------5-----------5------|
  kay,                 here  I    stay                 with  my


G|------- ------- ------- -------|------- ------- ------- -------|
D|-------------------------------|-------------------------------|
A|7-----------7------------------|7-----------7-----------7------|
E|----------------7--------------|----------------7--------------|
  lone -  li- ness.                                   I   don't


G|------- ------- ------- -------|------- ------- ------- -------|
D|-------------------------------|-------------------------------|
A|----------------4--------------|----------------9--------------|
E|2-----------2-----------2------|7-----------7-----------7------|
  care what  they say, I    won't stay        in a world  without


G|------- ------- ------- -------|------- ------- ------- -------|
D|-------------------------------|-------------------------------|
A|7-----------7------------------|7-----------7------------------|
E|----------------7--------------|----------------7--------------|
  love.

Bridge:
G|------- ------- ------- -------|------- ------- ------- -------|
D|-------------------------------|-------------------------------|
A|-------------------------------|-------------------------------|
E|5-----------5---5--------------|5-----------5---5-----------5--|
          So  I   wait,       and in  a       while,


G|------- ------- ------- -------|------- ------- ------- -------|
D|-------------------------------|-------------------------------|
A|7-----------7---7---7----------|7-----------7---7---7-------7--|
E|-------------------------------|-------------------------------|
          I would see         my  true love   smile.


G|------- ------- ------- -------|------- ------- ------- -------|
D|-------------------------------|-------------------------------|
A|-------------------------------|-------------------------------|
E|5-----------5---5---5----------|5-----------5---5---5----------|
          She may come,       I   know not    when,


G|------- ------- ------- -------|------- ------- ------- -------|
D|-------------------------------|-------------------------------|
A|-------------------------------|-------------------------------|
E|2-----------2---2---2----------|8-----------8---7---7-------7--|
          when she does,  I'll    know.       So  ba- by  un- til

Verse:
G|------- ------- ------- -------|------- ------- ------- -------|
D|-------------------------------|-------------------------------|
A|7-----------7------------------|----------------6--------------|
E|----------------7---7----------|4-----------4-----------4------|
  then,           lock me a - way,                            and


G|------- ------- ------- -------|------- ------- ------- -------|
D|----------------6--------------|----------------6--------------|
A|4-----------4------------------|4-----------4-----------4------|
E|-------------------------------|-------------------------------|
  don't       allow           the day                 Here in-


G|------- ------- ------- -------|------- ------- ------- -------|
D|-------------------------------|-------------------------------|
A|7-----------7------------------|----------------7--------------|
E|----------------7--------------|5-----------5-----------5------|
  side,                where I    hide                 with  my


G|------- ------- ------- -------|------- ------- ------- -------|
D|-------------------------------|-------------------------------|
A|7-----------7------------------|7-----------7-----------7------|
E|----------------7--------------|----------------7--------------|
  lone -  li- ness.                                   I   don't


G|------- ------- ------- -------|------- ------- ------- -------|
D|-------------------------------|-------------------------------|
A|----------------4--------------|----------------9--------------|
E|2-----------2-----------2------|7-----------7-----------7------|
  care what  they say, I    won't stay        in a world  without


G|------- ------- ------- -------|------- ------- ------- -------|
D|-------------------------------|-------------------------------|
A|7-----------7------------------|-------------------------------|
E|----------------7--------------|8-----------8---7-----------7--|
  love.

Verse (solo):
G|------- ------- ------- -------|------- ------- ------- -------|
D|-------------------------------|-------------------------------|
A|7-----------7------------------|----------------6--------------|
E|----------------7--------------|4-----------4-----------4------|



G|------- ------- ------- -------|------- ------- ------- -------|
D|----------------6--------------|----------------6--------------|
A|4-----------4------------------|4-----------4-----------4------|
E|-------------------------------|-------------------------------|



G|------- ------- ------- -------|------- ------- ------- -------|
D|-------------------------------|-------------------------------|
A|7-----------7------------------|----------------7--------------|
E|----------------7--------------|5-----------5-----------5------|



G|------- ------- ------- -------|------- ------- ------- -------|
D|-------------------------------|-------------------------------|
A|7-----------7------------------|7-----------7-----------7------|
E|----------------7--------------|----------------7--------------|



G|------- ------- ------- -------|------- ------- ------- -------|
D|-------------------------------|-------------------------------|
A|----------------4--------------|----------------9--------------|
E|2-----------2-----------2------|7-----------7-----------7------|



G|------- ------- ------- -------|------- ------- ------- -------|
D|-------------------------------|-------------------------------|
A|7-----------7------------------|7-----------7------------------|
E|----------------7--------------|----------------7--------------|


Bridge:
G|------- ------- ------- -------|------- ------- ------- -------|
D|-------------------------------|-------------------------------|
A|-------------------------------|-------------------------------|
E|5-----------5---5---5----------|5-----------5---5---5----------|
          So  I   wait,       and in  a       while,


G|------- ------- ------- -------|------- ------- ------- -------|
D|-------------------------------|-------------------------------|
A|7-----------7---7---7----------|7-----------7---7---7----------|
E|-------------------------------|-------------------------------|
          I would see         my  true love   smile.


G|------- ------- ------- -------|------- ------- ------- -------|
D|-------------------------------|-------------------------------|
A|-------------------------------|-------------------------------|
E|5-----------5---5---5----------|5-----------5---5---5----------|
          She may come,       I   know not    when,


G|------- ------- ------- -------|------- ------- ------- -------|
D|-------------------------------|-------------------------------|
A|-------------------------------|-------------------------------|
E|2-----------2---2---2----------|8-----------8---7---7-------7--|
          when she does,  I'll    know.       So  ba- by  un- til

Verse:
G|------- ------- ------- -------|------- ------- ------- -------|
D|-------------------------------|-------------------------------|
A|7-----------7------------------|----------------6--------------|
E|----------------7--------------|4-----------4-----------4------|
  then,           lock me a - way,                            and


G|------- ------- ------- -------|------- ------- ------- -------|
D|----------------6--------------|----------------6--------------|
A|4-----------4------------------|4-----------4-----------4------|
E|-------------------------------|-------------------------------|
  don't       allow           the day                 Here in-


G|------- ------- ------- -------|------- ------- ------- -------|
D|-------------------------------|-------------------------------|
A|7-----------7------------------|----------------7--------------|
E|----------------7--------------|5-----------5-----------5------|
  side,                where I    hide                 with  my


G|------- ------- ------- -------|------- ------- ------- -------|
D|-------------------------------|-------------------------------|
A|7-----------7------------------|7-----------7-----------7------|
E|----------------7--------------|----------------7--------------|
  lone -  li- ness.                                   I   don't


G|------- ------- ------- -------|------- ------- ------- -------|
D|-------------------------------|-------------------------------|
A|----------------4--------------|----------------9--------------|
E|2-----------2-----------2------|7-----------7-----------7------|
  care what  they say, I    won't stay        in a world  without


G|------- ------- ------- -------|------- ------- ------- -------|
D|-------------------------------|-------------------------------|
A|7-----------7------------------|4-----------4-----------4------|
E|----------------7-------7------|----------------4--------------|
  love.                                               I   don't

Outro:
G|------- ------- ------- -------|------- ------- ------- -------|
D|-------------------------------|-------------------------------|
A|----------------4--------------|----------------9--------------|
E|2-----------2-----------2------|7-----------7-----------7------|
  care what  they say, I    won't stay        in a world  without


G|------- ------- ------- -------|------- ------- ------- -------|
D|-------------------------------|----------------6--------------|
A|7-----------7------------------|4-----------4-----------4------|
E|----------------7--------------|-------------------------------|
  love.


G|------- ------- ------- -------|------- ------- ------- -------|
D|-------------------------------|-------------------------------|
A|----------------4--------------|2----2-----2----2----4-----6---|
E|2-----------2-----------2------|-------------------------------|



G|------- ------- ------- -------|------- ------- ------- -------|
D|-------------------------------|-------------------------------|
A|7------------------------------|-------------------------------|
E|-------------------------------|-------------------------------|

Please e-mail me for any corrections, or write a comment.
            
Submit corrections

comments powered by Disqus
↑ Back to top | Peter And Gordon Bass for A World Without Love. Lyrics for acoustic guitar and electric guitar. Tablatures and chords are parodies/interpretations of the original songs. You may use it for private study, scholarship, research or language learning purposes only