» » »

The Last Of The English Roses Tabs (ver.1)

Artists:  A B C D E F G H I J K L M N O P Q R S T U V W X Y Z # 

The Last Of The English Roses Tabs (ver.1)

Pete Doherty
Rating:
4/5 (3 votes)

Hard to play? Try these video lessons and learn fast.
                (Intro)
Last Of The English Roses, Intro
------------------------------------------------------------

1st part:
(0:10 - 0:14)

melodica (or whatever instrument it is) transcribed for guitar:

  1 + 2 + 3 + 4 + 1 + 2 + 3 + 4 +

e|------7---7---5-7-5---10--7---5-


2nd part:
(0:14 - 0:33)

guitar 1:

  1   2   3   4   1   2   3   4   1   2   3   4   1   2   3   4

e|----4-------4-------5-------5-------4-------4-------5-------5----|
B|----5-------5-------5-------5-------5-------5-------5-------5----|
G|----6-------6-------6-------6-------6-------6-------6-------6----|
D|-----------------------------------------------------------------|
A|-----------------------------------------------------------------|
E|-----------------------------------------------------------------|

melodica part continued from 1st part:

e|7-5-------------------------12--9--------------------------------|

guitar 2:

e|-----------------------------------------------------------------|
H|-----------------------------------------------------------------|
G|-----------------------------------------------------------------|
D|6---6-x6x6666\--2---2-x2x2222---6---6-x6x6666\--2---2-x2x2222----|
A|4---------------0---------------4---------------0----------------|
E|-----------------------------------------------------------------|

guitar 1:

e|----4-------4-------5-----5-5---|
B|----5-------5-------5--5x-5-5-0-|
G|----6-------6-------6--6x-6-6-0-|
D|--------------------------------|
A|--------------------------------|
E|--------------------------------|

guitar 2:

e|--------------------------------|
B|--------------------------------|
G|--------------------------------|
D|6---6-x6x6666\--2---2-x2x2222---|
A|4---------------0---------------|
E|--------------------------------|


guitar 1:

  1 + 2 + 3 + 4 + 1 + 2 + 3 + 4 +

e|----0---------------------------|
B|----0-------0---0-----------0---|
G|----1-------1---1-----------1---|
D|2-2-2-----2-2---2-----------2---|
A|2-2-------2-2---2-----------2---|
E|0-0-------0-0---0-----------0---|

lead guitar playing harmonics:

e|--------------------------------|
B|------------12--12--------------|
G|--------------------------------|
D|----------------------12--------|
A|--------------------------------|
E|--------------------------------|

guitar 2:

  1 + 2 + 3 + 4 + 1 + 2 + 3 + 4 +

e|--------------------------------|
H|--------------------------------|
G|--------------------------------|
D|6---6-x6--6-6---6---6-x6--6-6-6-|
A|4-------------------------------|
E|--------------------------------|

------------------------------------------------------------------------

Chords:

C#m - A - C#m - A - C#m - A - E - E
            
Hard to play? Try these video lessons and learn fast. | Correct




comments powered by Disqus
↑ Back to top | Tablatures and chords are parodies/interpretations of the original songs. You may use it for private study, scholarship, research or language learning purposes only