>
 >
Arcady

Arcady Guitar Tabs

Pete Doherty - Arcady chords, tabs, tablatures, lyrics

Guitar lessons | Add/correct | Request | Top 50 tabs Artists:  A B C D E F G H I J K L M N O P Q R S T U V W X Y Z 0-9

Arcady Guitar Tabs – Pete Doherty

CD, Sheet music, Poster

Do you like Arcady? Share with your friends now
ChordsChords v2Chords v3TabsUkulele
Pete Doherty

Chords

G   320033    C7  x32310
C5  x32013    D7  x54530
D7* xx0212    G7  353433
 

Intro

     one two one  two three four
-x-x--x--3---x-x--x-x--x-x--x-x---|
-x-x--x------x-x--x-x--x-x--x-x---|
-x-x--x------x-x--x-x--x-x--x-x---|
-x-x--x------x-x--x-x--x-x--x-x---|
-x-x--x------x-x--x-x--x-x--x-x---|
-x-x--x------x-x--x-x--x-x--x-x---|

--0-------------------------------------------------|  }
-----3-0--------------------------------------------|  }
---------------0--3-0-------------------------------|  }
----------------------------------------------------|  }
----------------------------------------------------|  }
----------------------------------------------------|  }
                                                       } x2
--3--3-3--3-3--3--3-3--3-3--3--3-3--3-3--3--3-3--3-3-| }
--0--0-0--0-0--1--1-1--1-1--0--0-0--0-0--0--0-0--0-0-| }
--0--0-0--0-0--0--0-0--0-0--0--0-0--0-0--0--0-0--0-0-| }
--0--0-0--0-0--2--2-2--2-2--0--0-0--0-0--0--0-0--0-0-| }
--2--2-2--2-2--3--3-3--3-3--2--2-2--2-2--2--2-2--2-2-| }
--3--3-3--3-3--x--x-x--x-x--3--3-3--3-3--3--3-3--3-3-| }

-----------------------------------------------------|
-----7------7-----7------7-----7------7-----7------7-|
-------5--5---------5--5---------5--5---------5--5---|
-----------------------------------------------------|
--5------------5------------5------------5-----------|
-----------------------------------------------------|

--5--5-5--5-5--5--5-5--5-5--5--5-5--5-5--5--5-5--5-5-|
--7--7-7--7-7--7--7-7--7-7--7--7-7--7-7--7--7-7--7-7-|
--5--5-5--5-5--5--5-5--5-5--5--5-5--5-5--5--5-5--5-5-|
--7--7-7--7-7--7--7-7--7-7--7--7-7--7-7--7--7-7--7-7-|
--5--5-5--5-5--5--5-5--5-5--5--5-5--5-5--5--5-5--5-5-|
--x--x-x--x-x--x--x-x--x-x--x--x-x--x-x--x--x-x--x-x-|

--0---------------------------------------------------|
-----3-0----------------------------------------------|
---------------0--3-0---------------------------------|
------------------------------------------------------|
------------------------------------------------------|
------------------------------------------------------|

--3--3-3--3-3--3--3-3--3-3--3--3-3--3-3--3--3-3--3-3--|
--0--0-0--0-0--1--1-1--1-1--0--0-0--0-0--0--0-0--0-0--|
--0--0-0--0-0--0--0-0--0-0--0--0-0--0-0--0--0-0--0-0--|
--0--0-0--0-0--2--2-2--2-2--0--0-0--0-0--0--0-0--0-0--|
--2--2-2--2-2--3--3-3--3-3--2--2-2--2-2--2--2-2--2-2--|
--3--3-3--3-3--x--x-x--x-x--3--3-3--3-3--3--3-3--3-3--|


   G          C5          G
In Arcady, A life trips along
  G              C5                 G
 pure and simple as the shepherd's song
  D7*
Seraphic pipes along the way in Arcady
        G      C5         G
In Arcady         in Arcady
G        C5            G
  Never saw I such a scene
 G                    C5            G
Such fair maids upon such remote a green
    D7*
And they employ their holiday with dance and game
                                    G     C5        G G7
And things I may never name in Arcady       in Arcady
                 C7
Said he was your teacher
                     G7
Taught you true and wise
                             C7
Now you know more than your teacher                      (Riff intro)
                  D7                                      G   C5  G
I see nothing but cool self-regard in your eyes   in Arcady


     G        C5           G
But see how twisted it becomes
G                C5           G
See how quickly twisted it becomes
    D7*
the cat gut ties my ankles to your bed-stead
           G    C5               G G7
That ain't love,  no that ain't love
                 C7
Said he was your teacher
                     G7
Taught you true and wise
                             C7
Now you know more than your teacher
                  D7
I see nothing but cool self-regard in your eyes
        G      C5         G
In Arcady         in Arcady

C7                  G7        C7               D7
-----------------------------------------------------------|
-----------------------------------------------------------|
--3---3p0---3-3-3p0-----------3-2/3p0--3-3-3p0-5-----------|
-----------------------------------------------------------|
-----------------------------------------------------------|
-----------------------------------------------------------|

        G      C5         G
In Arcady         in Arcady

   G             C5          G
In Arcady, your life trips along
  G              C5                 G
 pure and simple as the shepherd's song
        D7*
Feel Seraphic pipes along the way in Arcady
        G      C5         G      C5         G      C5         G
In Arcady         in Arcady         in Arcady         in Arcady

----3---|
--3-----|
--------|
--------|
--------|
--------|  End





Comments


Popular Pete Doherty tabs & chords
Arcady 2 Chords
Broken Love Song Chords
I Am The Rain Chords
Sheepskin Tearaway 2 Chords
The Last Of The English Roses Chords
1939 Returning Tabs
Amy Song Ukulele
Broken Love Song Ukulele
I Am The Rain Ukulele
Salome Ukulele


Song lyrics



↑ Back to top | Tablatures and chords are parodies/interpretations of the original songs. You may use it for private study, scholarship, research or language learning purposes only
© 2014 AZChords.com Contact us | Privacy policy | DMCA | Add/correct tabs | Request tabs | Top 50 tabs