» » »

Person L, Wooden Soldiers Tabs (ver.1)

Artists:  A B C D E F G H I J K L M N O P Q R S T U V W X Y Z # 

Wooden Soldiers Tabs (ver.1)

Person L Tabs
Rating:
0/5 (0 votes)
Hard to play? Try these video lessons and learn fast.
                INTRO
e------------------------------|
B------------------------------|
G--------------------------0---|
D---0-0h2-----0-0h2---------—0-|
A-3---------3---------3-(3)----|
E------------------------------|

e----------------------------------|
B----------------------------------|
G--------------------------0-----0-|
D---0-0h2-----0-0h2---------—0-2---|
A-3---------3---------3-(3)--------|
E----------------------------------|

VERSE 1 x4
e----------------------------------------|
B----------------------------------------|
G--------------------------0-------------|
D---0-0h2-----0-0h2---------—0-----0-0h2-|
A-3---------3---------3-(3)------3-------|
E----------------------------------------|

CHORUS x4
e-------|
B-------|
G-0~--0~
D-2~--2~
A-3~--0~
E-------

VERSE 2 x6
e------------------------------|
B------------------------------|
G--------------------------0---|
D---0-0h2-----0-0h2---------—0-|
A-3---------3---------3-(3)----|
E------------------------------|

Guitar 2
e---------------|
B---------------|
G---------------|
D-5h7-5h7-5h7-5-|
A---------------|
E---------------|

Guitar 3(both have different rhythm)
e---------------------------|
B---------------------------|
G-4h5-5-4h5-5-4h5-5-4h5-/7b-|
D---------------------------|
A---------------------------|
E---------------------------|

Repeat Chorus and Verse 2

Chorus
Guitar 1
e---------------|
B---------------|
G-0------0------|
D-2(x16)-2(x16)-|
A-3------0------|
E---------------|

Guitar 2
e-----------------------------|
B-5555-5555-10h12----10h12----|
G-----------------12-------12-|
D-----------------------------|
A-----------------------------|
E-----------------------------|

OUTRO
        x2
e-------------------------------]---------|
B-------------------------------]---------|
G--------------------------0----]---------|
D---0-0h2-----0-0h2---------—0--]---0-0h2-|
A-3---------3---------3-(3)-----]--3------|
E-------------------------------]---------|
            

comments powered by Disqus
↑ Back to top | Person L Tabs for Wooden Soldiers. Lyrics for acoustic guitar and electric guitar. Tablatures and chords are parodies/interpretations of the original songs. You may use it for private study, scholarship, research or language learning purposes only