>
 >
Untitled

Untitled Guitar Tabs

Person L - Untitled chords, tabs, tablatures, lyrics

Guitar lessons | Add/correct | Request | Top 50 tabs Artists:  A B C D E F G H I J K L M N O P Q R S T U V W X Y Z 0-9

Untitled Guitar Tabs – Person L

CD, Sheet music, Poster

Do you like Untitled? Share with your friends now
Tabs
-------------------------------------------------------------------------------
-------------------------------------------------------------------------------

Tuning: standard (E, A, D, G, B, e)

Guitar(s):
1 - Lead
2 - Extra/Rhythm

Just to note, Kenny does not play it exactly like this.  I'm just tabbing
out a simple version.  He sometimes adds a few open B, G, and D strings.
He probably messed up purposely during recording, giving it an awesome sound.

I'm giving you the parts.  You gotta put 'em together.  I'll see if I can put the 
order in my spare time.

GUITAR 1'S PART:

(0:00):
e|----------------------------------------------|
B|----------------------------------------------|
G|-----0----0----0----0----0----0----0----------|
D|----------------------------------------------|
A|-/10---10---10---10---10---10---10---10-0-5-7-|
E|----------------------------------------------|

(0:25):
e|--------------------|
B|--------------------|
D|[---0]--------0---0-|
G|[----](14x)---------|
A|[10--]------9---9---|
E|--------------------|

(0:31):
e|----------------------------------------------------------------|
B|-------0--------------------------------------------------------|
D|---------0-------0-------0-------0---0---0---0---0---0---0---0--|
G|---0---------0-------0-------0----------------------------------|
A|-3---3-----3---3---3---3---3---3---3---2---2---7---7---5---5----|
E|----------------------------------------------------------------|

(0:51):
e|-------------------------------------------------------------------------------|
B|-------------------------------------------------------------------------------|
D|----0----0----0----0----0----0------0---0--0----0----0----0----0----0---0---0--|
G|-------------------------------------------------------------------------------|
A|-10---10---10---10---10---10---10\9---9/10---10---10---10---12---12---9---9----|
E|-------------------------------------------------------------------------------|

(1:03):
e|-----------------------|
B|-----------------------|
D|-4~----0----0----0---0-|
G|-5~--------------------|
A|-5~-10---10----9---9---|
E|-3~--------------------|

(1:41)
e|------------------------------------|
B|------------------------------------|
D|----0----0----0----0-----7---7h9----|
G|---------------------7h9---9-----7\-|
A|-10---10---10---10------------------|
E|------------------------------------|

(1:58):
e|---------------------------------------|
B|---------------------------------------|
D|----0----0----0----0---0---0----0----0-|
G|---------------------------------------|
A|-10---10---12---12---9---9---10---10---|
E|---------------------------------------|

(2:08):
e|-0~---------------------------------|
B|-0~---------------------------------|
D|-2~---0---0---0---0---0---0---0---0-|
G|-2~---------------------------------|
A|-0~-3---3---3---3---5---5---5---5---|
E|------------------------------------|

(2:49):
e|---------------------------------------|
B|---------------------------------------|
D|----0----0----0----0----0----0---0---0-|
G|---------------------------------------|
A|-10---10---12---12---14---14---9---9---|
E|---------------------------------------|

(3:49):
e|---------------------|
B|---------------------|
D|[--0]---------0----0-|
G|[---](14x)-----------|
A|[9--]------12---12---|
E|---------------------|

(4:20):
e|----------------------------|
B|----------------------------|
D|----------------------------|
G|----------------------------|
A|-10-10-10-10-10-10-10-0-5-7-|
E|----------------------------|
PM:** ** ** ** ** ** **

(4:31):
e|---------------------------|
B|---------------------------|
D|---------------0---0---0---|
G|---------------------------|
A|-10-10-12-12-9---9---9---9-|
E|---------------------------|
PM:** ** ** **

(5:18):
e|-------------|
B|-------------|
D|-------------|
G|-------------|
A|-10(12x)-10\-|
E|-------------|
PM:**      **

GUITAR 2'S PART:

(0:45):
e|-----------------------------------------------------------------|
B|-----------------------------------------------------------------|
G|---------------------------0---0---0---0---0---0---0---0---0---0-|
D|---0---0---0---0---0---0-7---7-----------------------------------|
A|-7---7---7---7---7---7-----------7---7---5---5---7---7---9---9---|
E|-----------------------------------------------------------------|

(0:51)  Probably the most fun rift in the entire song.
e|-----------------------------------------10----10--------------------------------|
B|-8---------------------------------10h12----12----10-8---------------------------|
D|---9\-7-7-7---------7p0h7------------------------------9-9t-14t-12t-9t-7t-9t-11t-|
G|------------9p0h7hp-------99-99-99-----------------------------------------------|
A|---------------------------------------------------------------------------------|
E|---------------------------------------------------------------------------------|
t = tremelo

(2:38):
e|-----------------------------------------------|--------------------------------------|
B|-----------------------------------------------|--------------------------------------|
D|-----------------------------------------------|--------------------------------------|
G|-10(6x)-12-12-10-10-9-9-10-10-12-12-9(14x)-7-7-|-10(6x)-12-12-10-10-9-9-14-14-12-12---|
A|-----------------------------------------------|--------------------------------------|
E|-----------------------------------------------|--------------------------------------|

(4:33) Just a bunch of bending.  I don't really know how to tab it,
so please forgive me.  There's also more than 2 guitars, but I don't wanna
tab them, so stick with this:
e|------------------------------10t-12t-|
B|-12-12-12-12b13tbr12tb13tbr12b13t-----|
D|--------------------------------------|
G|--------------------------------------|
A|--------------------------------------|
E|--------------------------------------|


************************************

| /   slide up
| \   slide down
| h   hammer-on
| p   pull-off
| ~   vibrato
| +   harmonic
| x   Mute note
| b   Bend
| pb  Pre-bend
| br  Bend release
| pbr Pre-bend release
| brb Bend release bend





Comments


Popular Person L tabs & chords
Good Days Tabs
Goodness Gracious Tabs
Help Yourself Tabs
Help Yourself Intro Tabs
Holy Hell Tabs
Pleasure Is All Mine Intro Tabs
Stay Calm Tabs
Storms 1 Tabs
Sunshine Tabs
Wooden Soldiers Tabs


Song lyrics



↑ Back to top | Tablatures and chords are parodies/interpretations of the original songs. You may use it for private study, scholarship, research or language learning purposes only
© 2014 AZChords.com Contact us | Privacy policy | DMCA | Add/correct tabs | Request tabs | Top 50 tabs