» » »

The Positives Tabs (ver.1)

Artists:  A B C D E F G H I J K L M N O P Q R S T U V W X Y Z # 

The Positives Tabs (ver.1)

Person L
Rating:
5/5 (2 votes)

Hard to play? Try these video lessons and learn fast.
                Intro
e|----------------------------------------------------------------------|
B|----------------------------------------------------------------------|
G|-----------------------------------4----------------------------------|
D|-------------------5-----------------------------------5---4---5-7----|
A|-0h3h5-0h3h5-0h3h5---5-0h3h5-0h3h5---0h3h5-0h3h5-0h3h5-------5------5-|
E|----------------------------------------------------------------------|

Verse
e|-----------------------------------------------------------------------------|
B|-----------------------------------------------------------------------------|
G|---------------------------------------4-------------------------------------|
D|-------------------5---------------------------------------5------4---5-7----|
A|-0h3h5-0h3h5-0h3h5---0h3h5-0h3h5-0h3h5---0h3h5-0h3h5-0h3h5----3-5---5------5-|
E|-----------------------------------------------------------------------------|

At 1.33 instead of that last 5 on A string play this
e|-----------|
B|-----------|
G|-----------|
D|-4---5-7---|
A|---5-----5-|
E|-----------|


Bridge
Guitar 1
e|----------------------------------------------------------------------------|
B|----------------------------------------------------------------------------|
G|----------------------------------------------------------------------------|
D|-----------------------------------------------------------------4---5-7----|
A|-0h3h5-0h3h5-0h3h5---0h3h5-0h3h5-0h3h5---0h3h5-0h3h5-0h3h5---3-5---5------5-|
E|----------------------------------------------------------------------------|

Guitar 2 joins in 2.24 
e|-------------------------------------------------------------------------|
B|-3-3333---3--3--3---3-3333------------3-3333---33-3333--33--3--3---------|
G|-------------------------------------------------------------------------|
D|-0-0000---0--0--0---0-0000-4---5-7----0-0000---00-0000--00--0--0-4---5-7-|
A|-----------------------------5-------------------------------------5-----|
E|-------------------------------------------------------------------------|
            
Hard to play? Try these video lessons and learn fast. | Correct




comments powered by Disqus
↑ Back to top | Tablatures and chords are parodies/interpretations of the original songs. You may use it for private study, scholarship, research or language learning purposes only