» » »

Person L, Storms Tabs (ver.2)

Artists:  A B C D E F G H I J K L M N O P Q R S T U V W X Y Z # 

Storms Tabs (ver.2)

Person L Tabs
Rating:
5/5 (2 votes)
Storms lessons Tabs too difficult? Try these video lessons and learn fast
                INTRO
Mess around with this
e---0-2---|
B-0-----3-|
G---------|
D---------|
A---------|
E---------|

VERSE 1 x12
Guitar 1
e---------------------------|
B---------------------------|
G---------------99-1111-9---|
D-77-7-7---77-7-xx-x-x--x---|
A-55-5-5---55-5-77-9-9--7---|
E-33-3-3---33-3-------------|

Guitar 2
e-------------------------|
B-------------------------|
G-------------------------|
D-99-7-9---99-7-----------|
A----------------7h9-99-7-|
E-------------------------|

CHORUS
Guitar 1
      x4       x2
e----------]--------------------------|
B----3-----]--------------------------|
G--------2-]---------------99-1111-9--|
D----------]-77-7-7---77-7-xx-x-x--x--|
A-2----2---]-55-5-5---55-5-77-9-9--7--|
E----------]-33-3-3---33-3------------|

Guitar 2
      x4
e-------------------]-------------------------------------------------------|
B-------------------]-------------------------------------------------------|
G-------------------]------------------------------------------9h11-11-11p9-|
D-----7h9-----7h9p7-]-99-7-9---99-7--------------99-7-9---99-7--------------|
A-7h9-----7h9-------]-----------------7h9-99-7------------------------------|
E-------------------]-------------------------------------------------------|

Guitar 1
    x4         x2
e--------0-]--------------------------|
B----3-----]--------------------------|
G----------]---------------99-1111-9--|
D----------]-77-7-7---77-7-xx-x-x--x--|
A-2----2---]-55-5-5---55-5-77-9-9--7--|
E----------]-33-3-3---33-3------------|

Guitar 2
     x4
e-------------------|
B-------------------|
G-------------------|
D-----7h9-----7h9p7-|
A-7h9-----7h9-------|
E-------------------|

e---------------------------------------------------------|
B------7---7-9------9h11-11-11-9-------7----7-9-----------|
G-7h9----9-----99-7----------------7h9----9-----99-7------|
D----------------------------------------------------9999-|
A---------------------------------------------------------|
E---------------------------------------------------------|


VERSE 2
Guitar 2
e-------------------------|
B-------------------------|
G-------------------------|
D-99-7-9---99-7-----------|
A----------------7h9-99-7-|
E-------------------------|

Guitar 1 joins in after 4 plays x3
e---------------|
B---------------|
G---------------|
D-77-7-7---77-7-|
A-55-5-5---55-5-|
E-33-3-3---33-3-|

x4
e---------------------------|
B---------------------------|
G---------------99-1111-9---|
D-77-7-7---77-7-xx-x-x--x---|
A-55-5-5---55-5-77-9-9--7---|
E-33-3-3---33-3-------------|


Repeat Chorus


BRIDGE
Guitar 1
  x2
e----------------------------|
B----------------------------|
G----------------------------|
D----------------------------|
A-----0-2-4-5-7-9-12-10-12-9-|
E-2-3------------------------|

Guitar 1+2
e----------------------------------------------|
B----------------------------------------------|
G------------------------------999-999-999-999-|
D------------------------------999-999-999-999-|
A-----0-2-4-5-7-9-12-10-12-9---777-777-777-777-|
E-2-3------------------------------------------|

x4
Guitar 1
e---------------------------|
B---------------------------|
G---------------99-1111-9---|
D-77-7-7---77-7-xx-x-x--x---|
A-55-5-5---55-5-77-9-9--7---|
E-33-3-3---33-3-------------|

Guitar 2
e-------------------------|
B-------------------------|
G-------------------------|
D-99-7-9---99-7-----------|
A----------------7h9-99-7-|
E-------------------------|

FINAL CHORUS
Guitar 1
      x4       x2
e--------0-]--------------------------|
B----3-----]--------------------------|
G----------]---------------99-1111-9--|
D----------]-77-7-7---77-7-xx-x-x--x--|
A-2----2---]-55-5-5---55-5-77-9-9--7--|
E----------]-33-3-3---33-3------------|

Guitar 2
      x4               x2
e-------------------]------------------------|
B-------------------]------------------------|
G-------------------]------------------------|
D-----7h9-----7h9p7-]------------------------|
A-7h9-----7h9-------]-99-7-9---99-7-9-7------|
E-------------------]-------------------10-7-|

Guitar 1
      x4       x4
e--------0-]--------------------------|
B----3-----]--------------------------|
G----------]---------------99-1111-9--|
D----------]-77-7-7---77-7-xx-x-x--x--|
A-2----2---]-55-5-5---55-5-77-9-9--7--|
E----------]-33-3-3---33-3------------|

Guitar 2
      x4               x4
e-------------------]--------------------------|
B-------------------]--------------------------|
G-------------------]--------------------------|
D-----7h9-----7h9p7-]-99-7-9---99-7------------|
A-7h9-----7h9-------]-----------------7h9-99-7-|
E-------------------]--------------------------|

OUTRO x4
Guitar 1
e---------------------------|
B---------------------------|
G---------------99-1111-9---|
D-77-7-7---77-7-xx-x-x--x---|
A-55-5-5---55-5-77-9-9--7---|
E-33-3-3---33-3-------------|

Guitar 2
e-------------------------|
B-------------------------|
G-------------------------|
D-99-7-9---99-7-----------|
A----------------7h9-99-7-|
E-------------------------|
            

comments powered by Disqus
↑ Back to top | Person L Tabs for Storms. Lyrics for acoustic guitar and electric guitar. Tablatures and chords are parodies/interpretations of the original songs. You may use it for private study, scholarship, research or language learning purposes only