» » »

Storms Tabs (ver.1)

Artists:  A B C D E F G H I J K L M N O P Q R S T U V W X Y Z # 

Storms Tabs (ver.1)

Person L
Rating:
3/5 (2 votes)

Hard to play? Try these video lessons and learn fast.
                CAPO 2nd FRET

The whole song is basically a transition from F chord to C chord

    
           F                     C

e|----0--0--0--0----0--0--0--0-0-0-0-0--0----|
b|----1--1--1--1----1--1--1--1-1-1-1-1--1----|
G|----2--2--0--2----2--2--0--0-0-0-0-0--0----|
D|----3--3--3--3----3--3--3--2-2-2-2-2--x----| Repeat
A|----3--3--3--3----3--3--3--3-3-3-3-3--3----|
E|----x--x--x--x----x--x--x--x-x-x-x-x--x----|

solo thing

e|--------------------------------------|
b|--------------------------------------|
G|--------------------------------------|
D|--------------------0--2--5--3--5--2--| Repeat
A|-----------0--2--3--------------------|
E|--0--1--3-----------------------------|


x = (mutes)
            
Hard to play? Try these video lessons and learn fast. | Correct




comments powered by Disqus
↑ Back to top | Tablatures and chords are parodies/interpretations of the original songs. You may use it for private study, scholarship, research or language learning purposes only