» » »

Person L, Stay Calm Tabs (ver.1)

Artists:  A B C D E F G H I J K L M N O P Q R S T U V W X Y Z # 

Stay Calm Tabs (ver.1)

Person L Tabs
 Rating:
4/5 (4 votes)
Stay Calm lessons Tabs too difficult? Try these video lessons and learn fast
                -------------------------------------------------------------------------------
-------------------------------------------------------------------------------
Tuning: Standard

Intro (repeat x4)
   Gm   F#m
e|---------------|
B|---------------|
G|---------------| 
D|-----0---------|
A|---1-------0---|
E|-3-----3-2-----|

Verse 1 (0:10)
   Gm    F#m         Cm                Gm    F#m
e|---------------------------------------------------------|
B|---------------------------------------------------------|
G|---------------------------------------------------------|
D|-----0---------------1-0-----0------------0--------------|
A|---1-------0-[x4]--3-----3-3---[x4]----1--------0-[x4]---|
E|-3-----3-2---------------------------3------3-2----------|

Chorus (0:53)
   C     G/B         Am
e|----------------------------------------|
B|----------------------------------------|
G|-----0-----0-----------0----------------|
D|---2-2-----0-[x4]------0----------------|
A|-3-----3-2-----------2---2-----5-[x3]---|
E|-------------------5-------5/7----------|

e|----------|
B|----------|
G|-----0----|
D|-----0----|
A|-5/6------|
E|----------|

Verse 2 (1:14)
Same as Verse 1, but a second guitar plays:
e|---------0----------|
B|-3~-----3---3---3---|
G|---4-4-------4------|
D|--------------------|
A|--------------------|
E|--------------------|

Throughout the second Chorus (2:07), the second guitar plays:
   G           Am
e|-3-----3-2-5------------------|
B|---3-----------0-1---3-0------|
G|-----4-------2-----2----------|
D|------------------------------|
A|------------------------------|
E|------------------------------|

Verse 3, Guitar 2 (3:06)
e|---------------------------|
B|---------------------------|
G|-------------------0-0-0---|
D|---1-0---1-0---1-0-0-0-0---|
A|-3-----3-----3-------------|
E|---------------------------|

That's all the guitar parts.

Around 4:15 the keyboard plays this:
e|--------------|
B|--------------|
G|---------7~---|
D|-5-6-8-4------|
A|--------------|
E|--------------|

And then, an octave higher:
e|-----------10~---|
B|-8-10-11-7-------|
G|-----------------|
D|-----------------|
A|-----------------|
E|-----------------|

************************************

| /   slide up
| \   slide down
| h   hammer-on
| p   pull-off
| ~   let ring

************************************
            
Submit corrections

comments powered by Disqus
↑ Back to top | Person L Tabs for Stay Calm. Lyrics for acoustic guitar and electric guitar. Tablatures and chords are parodies/interpretations of the original songs. You may use it for private study, scholarship, research or language learning purposes only