» » »

Person L, Help Yourself Tabs (ver.2)

Artists:  A B C D E F G H I J K L M N O P Q R S T U V W X Y Z # 

Help Yourself Tabs (ver.2)

Person L Tabs
 Rating:
4/5 (5 votes)
Help Yourself lessons Tabs too difficult? Try these video lessons and learn fast
                
INTRO/VERSE (x4)
             X3                         then
e-----------------------------]----------------------|
B-----------------------------]----------------------|
G----9----------9-------------]----------------------|
D------12---------12----------]----------------------|
A-10--------10------10---9/10-]-101010101010--999999-|
E-----------------------------]-8-8-8-8-8-8---777777-|

CHORUS
x2
e------------------------------|
B------------------------------|
G------------------------------|
D---------10(x12)--------------|
A-10(x12)---------10(x8)-9(x8)-|
E------------------------------|

Just repeat that
            
Submit corrections

comments powered by Disqus
↑ Back to top | Person L Tabs for Help Yourself. Lyrics for acoustic guitar and electric guitar. Tablatures and chords are parodies/interpretations of the original songs. You may use it for private study, scholarship, research or language learning purposes only