» » »

Person L, Goodness Gracious Tabs (ver.1)

Artists:  A B C D E F G H I J K L M N O P Q R S T U V W X Y Z # 

Goodness Gracious Tabs (ver.1)

Person L Tabs
 Rating:
4/5 (4 votes)
Goodness Gracious lessons Tabs too difficult? Try these video lessons and learn fast
                This is my first tab. Love this song's riff and had to figure it out. I think I got it 
If there are any mistakes, or an easier way to play it, let me know. I'm not completely 
but I think this is the first tab for this song posted online.

Intro/Chorus

e|----|-------------------------------------------------|
B|----|-------------------------------------------------|
G|----|-------------------------------------------------|
D|----|--------------------------5----------------------|
A|----|-------7--------------5h7---7p5---5----5-5-------|
E|12/-|-0-5h7---7-5p0-5----------------7------3-3---0---| (7x)

e|-------------------------------------------------|
B|-------------------------------------------------|
G|-------------------------------------------------|
D|--------------------------5------------7-8-9/----|
A|-------7--------------5h7---7p5---5----5-6-7/----|
E|-0-5h7---7-5p0-5----------------7----------------|

Verse

e|---------------------------------------------|
B|---------------------------------------------|
G|---------------------------------------------|
D|---------------------------------------------|
A|--5-5----------------------------------------|
E|--3-3---0------------------------------------| (4x)


Chorus

e|-------------------------------------------------|
B|-------------------------------------------------|
G|-------------------------------------------------|
D|--------------------------5----------------------|
A|-------7--------------5h7---7p5---5----5-5-------|
E|-0-5h7---7-5p0-5----------------7------3-3---0---| (4x)


Verse

e|---------------------------------------------|
B|---------------------------------------------|
G|---------------------------------------------|
D|---------------------------------------------|
A|--5-5----------------------------------------|
E|--3-3---0------------------------------------| (4x)


Chorus

e|-------------------------------------------------|
B|-------------------------------------------------|
G|-------------------------------------------------|
D|--------------------------5----------------------|
A|-------7--------------5h7---7p5---5----5-5-------|
E|-0-5h7---7-5p0-5----------------7------3-3---0---| (4x)


Bridge

e|-------------------------------------------------------------|
B|-------------------------------------------------------------|
G|-----1212--------1212--------1212----------------------------|
D|-----1414--------1414--------1414----------------------------|
A|------------------------------------5-6-7-10-----------------|
E|-0-----------0-----------0-----------------------------------| (3x)


e|-------------------------------------------------------------|
B|-------------------------------------------------------------|
G|-----1212--------1212--------1212----------------------------|
D|-----1414--------1414--------1414----------------------------|
A|------------------------------------5-6-7-10-7/--------------|
E|-0-----------0-----------0-----------------------------------|


e|---------------------------------------------|
B|---------------------------------------------|
G|---------------------------------------------|
D|---------------------------------------------|
A|--5-5----------------------------------------|
E|--3-3---0------------------------------------| (4x)


e|-----------------------------------------------|
B|-----------------------------------------------|
G|-----------------------------------------------|
D|-----------------------------------------------|
A|-----------------------------------------5-5---|
E|-12/-------------------------------------3-3---|


Chorus

e|-------------------------------------------------|
B|-------------------------------------------------|
G|-------------------------------------------------|
D|--------------------------5----------------------|
A|-------7--------------5h7---7p5---5----5-5-------|
E|-0-5h7---7-5p0-5----------------7------3-3---0---| (4x)


Outro

e|-------------------------------------------------------------|
B|-------------------------------------------------------------|
G|-----1212--------1212--------1212----------------------------|
D|-----1414--------1414--------1414----------------------------|
A|------------------------------------5-6-7-10-----------------|
E|-0-----------0-----------0-----------------------------------| (3x)


e|-------------------------------------------------------------|
B|-------------------------------------------------------------|
G|-----1212--------1212--------1212----------------------------|
D|-----1414--------1414--------1414----------------------------|
A|------------------------------------5-6-7-10-7/--------------|
E|-0-----------0-----------0-----------------------------------|


Enjoy!
            
Submit corrections

comments powered by Disqus
↑ Back to top | Person L Tabs for Goodness Gracious. Lyrics for acoustic guitar and electric guitar. Tablatures and chords are parodies/interpretations of the original songs. You may use it for private study, scholarship, research or language learning purposes only