» » »

Person L, Good Days Tabs (ver.1)

Artists:  A B C D E F G H I J K L M N O P Q R S T U V W X Y Z # 

Good Days Tabs (ver.1)

Person L Tabs
 Rating:
4.2/5 (5 votes)
Good Days lessons Tabs too difficult? Try these video lessons and learn fast
1
                Intro
Guitar 1 (Left Side)
e|-----------------------------------------|
B|-----------------------------------------|
G|-1616-1616-1616-1616-1616-1616-1414-1414-|
D|-x-x--x-x--x-x--x-x--x-x--x-x--x-x--x-x--|
A|-1414-1414-1414-1414-1414-1414-1212-1212-|
E|-----------------------------------------|


Verse
Guitar 1 (Left Side)
e|-------------------------------------------------|
B|-------------------------------------------------|
G|-161616-1616-161616-1616-161616-1616-141414-1414-|
D|-x-x-x--x-x--x-x-x--x-x--x-x-x--x-x--x-x-x---x-x-|
A|-141414-1414-141414-1414-141414-1414-121212-1212-|
E|-------------------------------------------------|

Guitar 2 (Right Side)
e|-----------------------------------------|
B|-----------------------------------------|
G|-1616-1616-1616-1616-1616-1616-1414-1414-|
D|-x-x--x-x--x-x--x-x--x-x--x-x--x-x--x-x--|
A|-1414-1414-1414-1414-1414-1414-1212-1212-|
E|-----------------------------------------|


Chorus
Guitar 1
                  (x3)
e|-------------------------------------------------|
B|-------------------------------------------------|
G|-111111-1111-111111-1111-121212-1212-121212-1212-|
D|-x-x-x-x-x-x-x-x-x-x-x-x-x-x-x-x-x-x-x-x-x-x-x-x-|
A|-101010-1010-101010-1010-111111-1111-111111-1111-|
E|-------------------------------------------------|

e|-------------------------------------------------|
B|-------------------------------------------------|
G|-111111-1111-111111-1111-121212-1212-141414-1414-|
D|-x-x-x-x-x-x-x-x-x-x-x-x-x-x-x-x-x-x-x-x-x-x-x-x-|
A|-101010-1010-101010-1010-111111-1111-121212-1212-|
E|-------------------------------------------------|


Guitar 2
                  (x3)
e|------------------------------------------|-----------------------------------------|
B|------------------------------------------|-----------------------------------------|
G|-1111-1111-1111-1111-1212-1212--1212-1212-|-1111-1111-1111-1111-1212-1212-1414-1414-|
D|-x-x--x-x--x-x--x-x--x-x--x-x---x-x--x-x--|-x-x--x-x--x-x--x-x--x-x--x-x---x-x--x-x-|
A|-1010-1010-1010-1010-1111-1111--1111-1111-|-1010-1010-1010-1010-1111-1111-1212-1212-|
E|------------------------------------------|-----------------------------------------|

Repeat Verse and Chorus


3.01 - 3.25
Guitar 1 and 2 play verse


Guitar 3
              (x2)
e|-----------------------------------------|----------------------------------------------|
B|------------------------------------7/8b-|----------------------------------------------|
G|-7--------------------------------7------|-----7---7-9--------7h9--------7h9------------|
D|---9-0-7-9--7-9-0-7-9--7-9-0-7-9---------|-7\9---9------7-9-7------7-9-7----------------|
A|-----------------------------------------|------------------------------------10\9\10\9-|
E|-----------------------------------------|----------------------------------------------|

e|----------------------------------------------|
B|----------------------------------------------|
G|-----7---7-9--------7h9--------7h9--1111-1111-|
D|-7\9---9------7-9-7------7-9-7-------x-x--x-x-|
A|------------------------------------1010-1010-|
E|----------------------------------------------|


Bridge (3.25 - 3.48)
Guitar 1
                     (x3)
e|--------------------------------------------------------------------------|
B|--------------------------------------------------------------------------|
G|-11-11-11-11-11-11-11-11-11-11-11-11--12-12-12-12-12-12-12-12-12-12-12-12-|
D|-x--x--x--x--x--x--x--x--x--x--x--x---x--x--x--x--x--x--x--x--x--x--x--x--|
A|-10-10-10-10-10-10-10-10-10-10-10-10--11-11-11-11-11-11-11-11-11-11-11-11-|
E|--------------------------------------------------------------------------|

e|--------------------------------------------------------------------------|
B|--------------------------------------------------------------------------|
G|-11-11-11-11-11-11-11-11-11-11-11-11--12-12-12-12-12-12-14-14-14-14-14-14-|
D|--x--x--x--x--x--x--x--x--x--x--x--x---x--x--x--x--x--x--x--x--x--x--x--x-|
A|-10-10-10-10-10-10-10-10-10-10-10-10--11-11-11-11-11-11-12-12-12-12-12-12-|
E|--------------------------------------------------------------------------|

Guitar 2 (tremolo)
e|----------------------------------------|
B|----------------------------------------|
G|-11(x80)-12-(x16)-11(x16)-12(x8)-14(x8)-|
D|----------------------------------------|
A|----------------------------------------|
E|----------------------------------------|


Then Guitar 1 and 2 continue to play Verse riff until the end


4.01 - 4.28
Guitar 3
e|-7-----------------------------------------------------------7------------------------|
B|-8-5b----7bh8p7-5~--3-53--------8--------8--------8--3-5-----8-5b----7bh8p7-5\3-------|
G|------5b-----------------555555---555555---555555--------5--------5b------------------|
D|------------------------------------------------------------------------------------5-|
A|--------------------------------------------------------------------------------3-5---|
E|--------------------------------------------------------------------------------------|

e|-------------------------------------77-77-|
B|--------8--------8--------8--3-5-----88-88-|
G|-555555---555555---555555--------5---------|
D|-------------------------------------------|
A|-------------------------------------------|
E|-------------------------------------------|
            
Submit corrections

comments powered by Disqus
↑ Back to top | Person L Tabs for Good Days. Lyrics for acoustic guitar and electric guitar. 1 Tablatures and chords are parodies/interpretations of the original songs. You may use it for private study, scholarship, research or language learning purposes only