>
 >
Street Waves

Street Waves Bass Tabs

Pere Ubu - Street Waves chords, tabs, tablatures, lyrics

Guitar lessons | Add/correct | Request | Top 50 tabs Artists:  A B C D E F G H I J K L M N O P Q R S T U V W X Y Z 0-9

Street Waves Bass Tabs – Pere Ubu

CD, Sheet music, Poster

Do you like Street Waves? Share with your friends now
Bass Tabs
PERE UBU - STREET WAVES
BASSIST: TONY MAIMONE

VERSE

E -----------------------5-6-7------------|
A --(5)--7-7-7---7-7-7-7-------7-7-7-7----|
D -------------5--------------------------|
G ----------------------------------------|

BRIDGE/CHORUS
                                          BACK TO THE VERSE
E --------------------------------------I-------------------|
A --7-7-7-------------------------------I-7-7-7---7-7-7-7---|
D ---------5------5--7-7-7-7-------5----I-------5-----------|
G -----------7--5-------------7--5------I-------------------|


BREAK before the last verse

E --------------------------------------|
A -------------------------------7-7----|
D ---7(h)9-9-9--7(h)9-9-9---------------|
G -------------------------7-8-9--------|

E -----------------------5-6-7------------|
A --(5)--7-7-7---7-7-7-7-------7-7-7-7----|
D -------------5--------------------------|
G ----------------------------------------|

E --------------------------------------|
A -------------------------------7-7----|
D ---7/9-9-9--7/9-9-9-------------------|
G -------------------------7-8-9--------|

E --------------------------------------|
A ---7-7-----7-7-----------7-7-7-7------|
D -------------------7-8-9--------------|
G -------9-9-----9-9--------------------|

E ------------------5-6-7------------|
A --7-7-7---7-7-7-7-------7-7-7-7----|
D --------5--------------------------|
G -----------------------------------|

AND THEN PLAY THE LAST VERSE

FANTASTIC SONG-----------------------PERE UBU RULES!-------------





Comments


Popular Pere Ubu tabs & chords
Dub Housing Bass Tabs
Heart Of Darkness Bass Tabs
Life Stinks Bass Tabs
Nonalignment Pact Bass Tabs
30 Seconds Over Tokyo Intro Tabs
30 Seconds Over Tokyo Intro 1 Tabs


Song lyrics



↑ Back to top | Tablatures and chords are parodies/interpretations of the original songs. You may use it for private study, scholarship, research or language learning purposes only
© 2014 AZChords.com Contact us | Privacy policy | DMCA | Add/correct tabs | Request tabs | Top 50 tabs