>
 >
Nonalignment Pact

Nonalignment Pact Bass Tabs

Pere Ubu - Nonalignment Pact chords, tabs, tablatures, lyrics

Guitar lessons | Add/correct | Request | Top 50 tabs Artists:  A B C D E F G H I J K L M N O P Q R S T U V W X Y Z 0-9

Nonalignment Pact Bass Tabs – Pere Ubu

CD, Sheet music, Poster

Do you like Nonalignment Pact? Share with your friends now
Bass Tabs
PERE UBU - NONALIGNMENT PACT
BASSIST: TONY MAIMONE


INTRO
E ------------------------------------------------0-0-0-0-0-0-0-0-0-0-0-0-|
A ------------------------------------------------------------------------|
D -9-11-9---------9-11-9--------9-11-9---9-11-9/5-------------------------|
G -9-11-9--10p12--9-11-9--8p10--9-11-9---9-11-9/5-------------------------|

VERSE
E --(0)--5-5--6-6--7-7--8-8-------------------|
A ---------------------------(6)-7-7---7-7-7--|
D --------------------------------------------|
G --------------------------------------------|

CHORUS

E --(0)--7-7-7----5-5------------------5------|
A ---------------------7---6-7-6-7-6-7--------|
D --------------------------------------------|
G --------------------------------------------|

E --(0)--7-7-7----5-5-------5-6-7-------5-----|
A ---------------------7----------5-6-7-------|
D --------------------------------------------|
G --------------------------------------------|

SECOND VERSE

E --------------------------------|
A -----5-7----5-7----5-7---7-7-7--|
D --------------------------------|
G ---5------5------5--------------|

BRIDGE

E -------------------------------------------------------------------|
A ------7-------7--------7--7-7-7-7------7--7-7-7-7-------7--7-7-7-7-|
D --5-4-----5-4------5-4------------5-4---------------5-4------------|
G -------------------------------------------------------------------|

PLAY THE VERSE AND THEN THE CHORUS

SECOND BRIDGE

E -----------------0---4-5/||15-15-15-15-14-14-14-14-12--12--12------|
A ---------------5---------||--------------------------10--10--10-10-| X4
D -------------------------||----------------------------------------|
G -6---5-------------------||----------------------------------------|

THEN BACK TO THE VERSE





Comments


Popular Pere Ubu tabs & chords
Dub Housing Bass Tabs
Heart Of Darkness Bass Tabs
Life Stinks Bass Tabs
Street Waves Bass Tabs
30 Seconds Over Tokyo Intro Tabs
30 Seconds Over Tokyo Intro 1 Tabs


Song lyrics



↑ Back to top | Tablatures and chords are parodies/interpretations of the original songs. You may use it for private study, scholarship, research or language learning purposes only
© 2014 AZChords.com Contact us | Privacy policy | DMCA | Add/correct tabs | Request tabs | Top 50 tabs