» » »

People In Planes, Light For The Deadvine Tabs (ver.1)

Artists:  A B C D E F G H I J K L M N O P Q R S T U V W X Y Z # 

Light For The Deadvine Tabs (ver.1)

People In Planes Tabs
 Rating:
3.6/5 (7 votes)
Light For The Deadvine lessons Tabs too difficult? Try these video lessons and learn fast
1
                This song was kinda hard at some points,i did what i could.I think a lot of it is wrong,& 
i can' figure out the intro.


MAIN RIFF-
e---------------------------------------------|
B---------------------------------------------|
G---------------------------------------------|
D-12-12-12-12-12-12-12-0h12-12-12-12-12-12-12-|
A-12-12-12-12-12-12-12-0h12-12-12-12-12-12-12-|
E-10-10-10-10-10-10-10-0h10-10-10-10-10-10-10-|

e--------------------------------|
B--------------------------------|
G--------------------------------|
D-8-8-8-8-8-8-8-0h5-5-5-5-5-5-5/-|
A-8-8-8-8-8-8-8-0h5-5-5-5-5-5-5/-|
E-6-6-6-6-6-6-6-0h3-3-3-3-3-3-3/-|

e---------------------------------------------|
B---------------------------------------------|
G---------------------------------------------|
D-12-12-12-12-12-12-12-0h12-12-12-12-12-12-12-|
A-12-12-12-12-12-12-12-0h12-12-12-12-12-12-12-|
E-10-10-10-10-10-10-10-0h10-10-10-10-10-10-10-|

e----------------------------------|
B----------------------------------|
G----------------------------------|
D-8-8-8-8-8-8-8-0h5-5-5-5-5-5-5-0h-|
A-8-8-8-8-8-8-8-0h5-5-5-5-5-5-5-0h-|
E-6-6-6-6-6-6-6-0h3-3-3-3-3-3-3-0h-|
Do this as much as times needed,i dnt know exactly what it is.
BG FILL-IN
G-9/17171717----9/17171717---------|
Thats played in the background for a while.
BREAK-
e---------------------------------------------|
B---------------------------------------------|
G-101010--10-141414--14--15-10--10-14--141414-|
D-121212--12-151515--15-----12--12-15--151515-|
A----------------------------------17--171717-|
E---------------------------------------------|

e-------------------------------------|
B-------------------------------------|
G-----10------10------10--------------|
D---12--12--12--12--12--1212-12-12-12-|
A-12------12------12------12-12-12-12-|
E-------------------------10-10-10-10-|x2
CHORUS-
e---------------------------------------------|
B---------------------------------------------|
G-10-9--10-9--10-12--14--12--14--12--10-9--10-|
D-10-9--10-9--10-12--14--12--14--12--10-9--10-|
A-8--7--8--7--8--10--12--10--12--10--8--7--8--|
E---------------------------------------------|x2

e--------------------|
B--------------------|
G--------------------|
D-77777777/12121212--|
A-77777777/12121212--|
E-55555555/10101010--|
            
Submit corrections

comments powered by Disqus
↑ Back to top | People In Planes Tabs for Light For The Deadvine. Lyrics for acoustic guitar and electric guitar. 1 Tablatures and chords are parodies/interpretations of the original songs. You may use it for private study, scholarship, research or language learning purposes only