» » »

People In Planes, Know By Now Tabs (ver.1)

Artists:  A B C D E F G H I J K L M N O P Q R S T U V W X Y Z # 

Know By Now Tabs (ver.1)

People In Planes Tabs
Rating:
4/5 (4 votes)
Know By Now lessons Tabs too difficult? Try these video lessons and learn fast
                

“Know By Now”
People in Planes
Beyond the Horizon


Verse:

e |--------------------------------------------------------------------------|
b |--------------------------------------------------------------------------|
g |---------------------------------------------------0----0--------0-----0--|
d |------2-------2-----------------------------------------------------------|
a |-0-0------0---------------3------3---------3-3----3------3-3-----3--------|
E|-------------------0-1-1-------1---------1---------------------------------|
            Am          F               C               C

Without you, it’s nothing
It’s just a room with a view
And all these things that we’ve collected
Just remind me of you

Pre-Chorus:

e |--1------------/----------------5--------------------------3---------------------|
b |--1------------/----------------5--------------------------3---------------------|
g |--2------------/----------------5--------------------------4---------------------|
d |--3------------/----------------7---x3--------------------5---x32 (8 sets of 4)--|
a |--3------------/----------------7--------------------------5---------------------|
E|--1------------/----------------5--------------------------3----------------------|

       F                                    Am                             G

And everything I do
And every word I say to you
There’s nothing getting through
Is it over?

Chorus:

e |--00000000----00000000----00000000----00000000--|
b |--11111111----11111111----11111111----11111111--|
g |--00000000----22222222----22222222----22222222--|
d |--22222222----33333333----22222222----33333333--|
a |--33333333----33333333----00000000----33333333--|
E|--33333333---------------------------------------|

           C                  F                   Am              F

I should know by now
Know by now
You let me go
You let me go from you
I should know by now
Know by now
But somehow I knew I would not get through to you

There’s a bridge that rides out F and Am, but I’m not going to tab it, you just sort of 
to wank it out on your own.
            
Submit corrections

comments powered by Disqus
↑ Back to top | People In Planes Tabs for Know By Now. Lyrics for acoustic guitar and electric guitar. Tablatures and chords are parodies/interpretations of the original songs. You may use it for private study, scholarship, research or language learning purposes only