>
 >
Witchcraft 2

Witchcraft 2 Guitar Tabs

Pendulum - Witchcraft 2 chords, tabs, tablatures, lyrics

Guitar lessons | Add/correct | Request | Top 50 tabs Artists:  A B C D E F G H I J K L M N O P Q R S T U V W X Y Z 0-9

Witchcraft 2 Guitar Tabs – Pendulum

CD, Sheet music, Poster

Do you like Witchcraft 2? Share with your friends now
Bass TabsBass Tabs v2Bass Tabs v3ChordsTabsTabs v2Tabs v3Tabs v4Ukulele
INTRO

0.00 - 0.23
"It's in your eyes.."
E-----------------------------------------------|
B------1----4----4----1----1----4----4----1-----|
G-------1----5----3----3----1----5----3----3----|
D-----3----6----6----3----3----6----6----3------|  x2
A---------4----6----1---------4----6----1-------|
D----3-------------------3----------------------|

0.23-0.45
"Does it feel like.."
E--------------------------------------------------|
B-----4-----4-----4-----4-----1-----1-----4-----4--|
G----1-1---1-1---3-3---3-3---1-1---1-1---3-3---3-3-|
D---3-----3-----1-----1-----1-----1-----1-----1----|
A--------------------------------------------------|
D--------------------------------------------------|

"I'm looking for your hand in the rough.."
E--------------------------------------------------|
B-----4-----4-----4-----4-----4-----4-----4-----6--|
G----1-1---1-1---3-3---3-3---1-1---1-1---1-1---3-3-|
D---3-----3-----1-----1-----1-----1-----1-----1----|
A--------------------------------------------------|
D--------------------------------------------------|


CHORUS

0.45 - 1.08
E-----------------------------------------|
B-----------------------------------------|
G------------66666666--------33333333-----|
D----33333333666666661111111133333333-----|    x4
A----33333333444444441111111111111111-----|
D----33333333--------11111111-------------|


PRE VERSE/MAIN RIFF

1.08 - 1.30
E------------------------------------------------|
B------------------------------------------------|
G--------------------------------------6-5---6---|
D----3--3-5-3---3-3--5-6--3--3-5-3---3-----8---6-|
A----3--------6---3-------3--------6-------------|
D----3------------3-------3----------------------|


E------------------------------------------------|
B------------------------------------------------|
G-----------------------------------------6-5----|
D----3--3-5-3---3-3--5-6--3--3-5-3---3-3------6--|
A----3--------6---3-------3--------6---3---------|
D----3------------3-------3------------3---------|


E------------------------------------------------|
B------------------------------------------------|
G--------------------------------------6-5---6---|
D----3--3-5-3---3-3--5-6--3--3-5-3---3-----8---6-|
A----3--------6---3-------3--------6-------------|
D----3------------3-------3----------------------|


E-----------------------------------------------|
B-----------------------------------------------|
G---------------------------------6-------------|
D----3--3-5-3---3-3--5-6--33333333611111111-----|
A----3--------6---3-------33333333411111111-----|
D----3------------3-------33333333-11111111-----|


VERSE

1.30 - 1.52
"Leading on the action..."
E-----------------|------8----|
B-----------------|---9-9---9-|
G----SILENCE FOR--|-----------|
D-------8-BARS----|--6-6------|   x8
A-----------------|-----------|
D-----------------|-----------|


CHORUS

1.52 - 2.14
"You gotta get out.."
E-----------------------------------------|
B-----------------------------------------|
G------------66666666--------33333333-----|
D----33333333666666661111111133333333-----|    x4
A----33333333444444441111111111111111-----|
D----33333333--------11111111-------------|


PRE VERSE/MAIN RIFF

2.14 - 2.35

E------------------------------------------------|
B------------------------------------------------|
G--------------------------------------6-5---6---|
D----3--3-5-3---3-3--5-6--3--3-5-3---3-----8---6-|
A----3--------6---3-------3--------6-------------|
D----3------------3-------3----------------------|


E------------------------------------------------|
B------------------------------------------------|
G-----------------------------------------6-5----|
D----3--3-5-3---3-3--5-6--3--3-5-3---3-3------6--|
A----3--------6---3-------3--------6---3---------|
D----3------------3-------3------------3---------|


E------------------------------------------------|
B------------------------------------------------|
G--------------------------------------6-5---6---|
D----3--3-5-3---3-3--5-6--3--3-5-3---3-----8---6-|
A----3--------6---3-------3--------6-------------|
D----3------------3-------3----------------------|


E-----------------------------------------------|
B-----------------------------------------------|
G---------------------------------6-------------|
D----3--3-5-3---3-3--5-6--33333333611111111-----|
A----3--------6---3-------33333333411111111-----|
D----3------------3-------33333333-11111111-----|


VERSE

2.35 - 2.58
"Darkness in the bedroom.."
E-----------------|------10---|
B-----------------|----9----9-|
G----SILENCE FOR--|-----------|
D-------8-BARS----|--6--6-----|   x8
A-----------------|-----------|
D-----------------|-----------|


BREAK

2.58 - 3.20

"We gotta get out.."
E-------------------------------------|
B-------------------------------------|
G-------------------------------------|
D-------------------------------------| x4
A-----------444444444-------111111111-|
D----3333333---------1111111----------|


MAIN RIFF/OUTRO

3.23 - END

E------------------------------------------------|
B------------------------------------------------|
G--------------------------------------6-5---6---|
D----3--3-5-3---3-3--5-6--3--3-5-3---3-----8---6-|
A----3--------6---3-------3--------6-------------|
D----3------------3-------3----------------------|


E------------------------------------------------|
B------------------------------------------------|
G-----------------------------------------6-5----|
D----3--3-5-3---3-3--5-6--3--3-5-3---3-3------6--|
A----3--------6---3-------3--------6---3---------|
D----3------------3-------3------------3---------|


E------------------------------------------------|
B------------------------------------------------|
G--------------------------------------6-5---6---|
D----3--3-5-3---3-3--5-6--3--3-5-3---3-----8---6-|
A----3--------6---3-------3--------6-------------|
D----3------------3-------3----------------------|


E-----------------------------------------------|
B-----------------------------------------------|
G---------------------------------6-------------|
D----3--3-5-3---3-3--5-6--33333333611111111-----|
A----3--------6---3-------33333333411111111-----|
D----3------------3-------33333333-11111111-----|

E------------------------------------------------|
B------------------------------------------------|
G--------------------------------------6-5---6---|
D----3--3-5-3---3-3--5-6--3--3-5-3---3-----8---6-|
A----3--------6---3-------3--------6-------------|
D----3------------3-------3----------------------|


E------------------------------------------------|
B------------------------------------------------|
G-----------------------------------------6-5----|
D----3--3-5-3---3-3--5-6--3--3-5-3---3-3------6--|
A----3--------6---3-------3--------6---3---------|
D----3------------3-------3------------3---------|


E------------------------------------------------|
B------------------------------------------------|
G--------------------------------------6-5---6---|
D----3--3-5-3---3-3--5-6--3--3-5-3---3-----8---6-|
A----3--------6---3-------3--------6-------------|
D----3------------3-------3----------------------|


E-----------------------------------------------|
B-----------------------------------------------|
G---------------------------------6-------------|
D----3--3-5-3---3-3--5-6--33333333611111111-----|
A----3--------6---3-------33333333411111111-----|
D----3------------3-------33333333-11111111-----|





Comments


Popular Pendulum tabs & chords
Hold Your Colour Bass Tabs
Tarantula 3 Bass Tabs
The Island Part 1 Bass Tabs
Crush 1 Chords
Granite Chords
Comprachicos Tabs
Different Tabs
Fasten Your Seatbelt 2 Tabs
Slam Tabs
The Vulture 3 Tabs


Song lyrics



↑ Back to top | Tablatures and chords are parodies/interpretations of the original songs. You may use it for private study, scholarship, research or language learning purposes only
© 2014 AZChords.com Contact us | Privacy policy | DMCA | Add/correct tabs | Request tabs | Top 50 tabs