>
 >
Witchcraft 1

Witchcraft 1 Guitar Tabs

Pendulum - Witchcraft 1 chords, tabs, tablatures, lyrics

Guitar lessons | Add/correct | Request | Top 50 tabs Artists:  A B C D E F G H I J K L M N O P Q R S T U V W X Y Z 0-9

Witchcraft 1 Guitar Tabs – Pendulum

CD, Sheet music, Poster

Do you like Witchcraft 1? Share with your friends now
Bass TabsBass Tabs v2Bass Tabs v3ChordsTabsTabs v2Tabs v3Tabs v4Ukulele
An awesome song from the amazing new Pendulum album Immersion!
I tabbed this by ear so it may not be 100% perfect but I think it sounded ok

Guitar 1 (Clean)
Intro
(0.00 - 0.45)
e---------------------------------------------------------------------|
B------------1----------------1 ----------------4----------------1----|
G----------------1----------------1--------3-------3----------------3-| (x4)
D-------3-----------------3-----------1---------------------3---------|
A---------------------4----------------------------------1------------|
D---3-----------------------------------------------------------------|

e---------------------------------------------------------------------|
B-----------1---------------1--------------4----------------4---------|
G---------------1--------------1-------3-------3-------3-------3------|
D-------3---------------3----------1---------------1------------------|
A---4---------------4-------------------------------------------------|
D---------------------------------------------------------------------|

e---------------------------------------------------------------------|
B-----------1---------------1-----------------------------------------|
G---------------1--------------1-----------8-----------------8--------|
D-------3---------------3--------------6-------6--------6-------6-----|
A---------------------------------------------------------------------|
D---3--------------3---------------6---------------6------------------|

e---------------------------------------------------------------------|
B-----------4---------------4--------------4----------------4---------|
G---------------1--------------1-------3-------3-------3-------3------|
D-------3---------------3----------1---------------1------------------|
A---4---------------4-------------------------------------------------|
D---------------------------------------------------------------------|

e---------------------------------------------------------------------|
B-----------1---------------1-----------------------------------------|
G---------------1--------------1-----------8--------------10----------|
D-------3---------------3--------------6------6-------6-------6-------|
A---------------------------------------------------------------------|
D---3--------------5---------------6--------------6/8-----------------|

Guitar 1 (Distorted)
Chorus
(0.45 - 1.07)
The rhythm is just simple a 8th note (quaver note) rhythm
i.e play each power chord 8 times
e---------------------------------------------------------------------|
B---------------------------------------------------------------------|
G----------------6---------------3------------------------------------|
D---------3------6-------1-------3------------------------------------|
A---------3------4-------1-------1------------------------------------|
D---------3--------------1--------------------------------------------|

Riff
(1.07 - 1.29)
Play the power chords at the start each bar
e--------------------------------------------------------------------|
B--------------------------------------------------------------------|
G--------------------------------------------------------------------|
D---------3----------------3-----------3-----------------------------|
A---------3----------------3-----------3--------------4--3-1-3-------|
D---------3---3-5-3-1-3----3---5--6----3---3-5-3-1-3------------6----|

e--------------------------------------------------------------------|
B--------------------------------------------------------------------|
G--------------------------------------------------------------------|
D---------3----------------3-----------3----------------3------------|
A---------3----------------3-----------3----------------3---4--3-----|
D---------3---3-5-3-1-3----3---5--6----3---3-5-3-1-3----3---------6--|

e--------------------------------------------------------------------|
B--------------------------------------------------------------------|
G--------------------------------------------------------------------|
D---------3----------------3-----------3-----------------------------|
A---------3----------------3-----------3--------------4--3-1-3-------|
D---------3---3-5-3-1-3----3---5--6----3---3-5-3-1-3------------6----|

                                                      P.M.
                                       ................................
e-------------------------------------------------------------------------|
B-------------------------------------------------------------------------|
G-------------------------------------------------------------------------|
D---------3----------------3-----------3-3-3-3-3-3-3-3-6-6-6-6-1-1-1-1----|
A---------3----------------3-----------3-3-3-3-3-3-3-3-6-6-6-6-1-1-1-1----|
D---------3---3-5-3-1-3----3---5--6----3-3-3-3-3-3-3-3-6-6-6-6-1-1-1-1----|

Guitar 1 (Clean)
Verse
(1.29 - 1.40)
No Guitar

(1.40 - 1.51)
e----------------------8----------|
B---------9--------------9--------|
G----10---------10----------------|   (x8)
D---------------------------------|
A---------------------------------|
D---------------------------------|

Guitar 1 (Distorted)
Chorus
(1.51 - 2.13)
The rhythm is just simple a 8th note (quaver note) rhythm
i.e play each power chord 8 times
e---------------------------------------------------------------------|
B---------------------------------------------------------------------|
G----------------6---------------3------------------------------------|
D---------3------6-------1-------3------------------------------------| (x4)
A---------3------4-------1-------1------------------------------------|
D---------3--------------1--------------------------------------------|

Riff
(2.13 - 2.35)
Play the power chords at the start each bar
e---------------------------------------------------------------------|
B---------------------------------------------------------------------|
G---------------------------------------------------------------------|
D---------3----------------3-----------3------------------------------|
A---------3----------------3-----------3--------------4--3-1-3--------|
D---------3---3-5-3-1-3----3---5--6----3---3-5-3-1-3------------6-----|

e---------------------------------------------------------------------|
B---------------------------------------------------------------------|
G---------------------------------------------------------------------|
D---------3----------------3-----------3-------------3----------------|
A---------3----------------3-----------3-------------3---4--3---------|
D---------3---3-5-3-1-3----3---5--6----3---3-5-3-1---3--------6-------|

e---------------------------------------------------------------------|
B---------------------------------------------------------------------|
G---------------------------------------------------------------------|
D---------3----------------3-----------3------------------------------|
A---------3----------------3-----------3--------------4--3-1-3--------|
D---------3---3-5-3-1-3----3---5--6----3---3-5-3-1-3------------6-----|

                                                   P.M.
                                       ...............................
e-----------------------------------------------------------------------|
B-----------------------------------------------------------------------|
G-----------------------------------------------------------------------|
D---------3----------------3-----------3-3-3-3-3-3-3-3-6-6-6-6-1-1-1-1--|
A---------3----------------3-----------3-3-3-3-3-3-3-3-6-6-6-6-1-1-1-1--|
D---------3---3-5-3-1-3----3---5--6----3-3-3-3-3-3-3-3-6-6-6-6-1-1-1-1--|

Guitar 1 (Clean)
Verse
(2.35 - 2.46)
No Guitar

(2.46 - 2.57)
e----------------------8----------|
B---------9--------------9--------|
G----10---------10----------------|   (x8)
D---------------------------------|
A---------------------------------|
D---------------------------------|

Bridge
(2.57 - 3.22)
Only the bass plays
G--------------------------------------------------------------------|
D--------------------------------------------------------------------| (x4)
A--------------------4-4-4-4-4-4-4-4----------------1-1-1-1-1-1-1-1--|
D----3-3-3-3-3-3-3-3-----------------1-1-1-1-1-1-1-1-----------------|

Riff
(3.22- 4.07)
Play the power chords at the start each bar
e---------------------------------------------------------------------|
B---------------------------------------------------------------------|
G---------------------------------------------------------------------|
D---------3----------------3-----------3------------------------------|
A---------3----------------3-----------3--------------4--3-1-3--------|
D---------3---3-5-3-1-3----3---5--6----3---3-5-3-1-3-----------6------|

e---------------------------------------------------------------------|
B---------------------------------------------------------------------|
G---------------------------------------------------------------------|
D---------3----------------3-----------3----------------3-------------|
A---------3----------------3-----------3----------------3---4--3------|
D---------3---3-5-3-1-3----3---5--6----3---3-5-3-1-3----3----------6--|


e---------------------------------------------------------------------|
B---------------------------------------------------------------------|
G---------------------------------------------------------------------|
D---------3----------------3-----------3------------------------------|
A---------3----------------3-----------3--------------4--3-1-3--------|
D---------3---3-5-3-1-3----3---5--6----3---3-5-3-1-3-----------6------|

                                                     P.M.
                                       ...............................
e-----------------------------------------------------------------------|
B-----------------------------------------------------------------------|
G-----------------------------------------------------------------------|
D---------3----------------3-----------3-3-3-3-3-3-3-3-6-6-6-6-1-1-1-1--|
A---------3----------------3-----------3-3-3-3-3-3-3-3-6-6-6-6-1-1-1-1--|
D---------3---3-5-3-1-3----3---5--6----3-3-3-3-3-3-3-3-6-6-6-6-1-1-1-1--|

End on
e-----------|
B-----------|
G-----------|
D-------3---|
A-------3---|
D-------3---|





Guitar 2 (Clean)
Intro
(0.00 - 0.45)
e---------------------------------------------------------------------|
B----------1-------------4--------------4--------------1--------------|
G-------------1-------------3---------------3-------------3-----------|
D-------3-------------6-------------6---------------3-----------------|(x4)
A------------------4-------------6---------------1--------------------|
D----3----------------------------------------------------------------|

e---------------------------------------------------------------------|
B--------------4--------------4--------------4---------------4--------|
G-----------------3---------------3-------------3---------------3-----|
D----------6-------------6---------------6----------------6-----------| 
A------4-------------4---------------6----------------6---------------|
D---------------------------------------------------------------------|

e---------------------------------------------------------------------|
B--------------1--------------1---------------------------------------|
G-----------------1---------------1----------8---------------8--5-----|
D----------3-------------3---------------6------6--------6------------| 
A---------------------------------------------------------------------|
D------3-------------3----------------6---------------6---------------|

e---------------------------------------------------------------------|
B--------------4--------------4--------------4---------------4--------|
G-----------------3---------------3-------------3---------------3-----|
D----------6-------------6---------------6----------------6-----------| 
A------4-------------4---------------6----------------6---------------|
D---------------------------------------------------------------------|

e---------------------------------------------------------------------|
B-----------1---------------1-----------------------------------------|
G---------------1--------------1-----------8--------------10----------|
D-------3---------------3--------------6------6-------6-------6-------|
A---------------------------------------------------------------------|
D---3--------------5---------------6--------------6/8-----------------|

Guitar 2 (Distorted)
Chorus
(0.45 - 1.07)
The rhythm is the same as for guitar 1
e---------------------------------------------------------------------|
B---------------------------------------------------------------------|
G----------------6---------------3------------------------------------|
D---------3------6-------1-------3------------------------------------|
A---------3------4-------1-------1------------------------------------|
D---------3--------------1--------------------------------------------|

Riff
(1.07 - 1.29)
Play the power chords at the start each bar
e-----------------------------------------------------------------|
B-----------------------------------------------------------------|
G-----------------------------------------------------6--5--3--5--|
D-----3---3--5--3-----3----3----5--6---3---3-5-3---3--------------|
A-----3------------6-------3-----------3---------6----------------|
D-----3--------------------3-----------3--------------------------|

e-----------------------------------------------------------------|
B-----------------------------------------------------------------|
G--------------------------------------------------------6--5-----|
D-----3---3--5--3-----3---3----5--6---3---3--5--3----3---------6--|
A-----3------------6------3-----------3------------6--------------|
D-----3-------------------3-----------3---------------------------|

e-----------------------------------------------------------------|
B-----------------------------------------------------------------|
G-----------------------------------------------------6--5--3--5--|
D-----3---3--5--3-----3---3----5--6---3---3--5--3---3-----------6-|
A-----3------------6------3-----------3-----------6---------------|
D-----3-------------------3-----------3---------------------------|

                                                     P.M.
                                      ................................
e----------------------------------------------------------------------|
B----------------------------------------------------------------------|
G----------------------------------------------------------------------|
D----3---3--5--3------3---5--6--------3-3-3-3-3-3-3-3-6-6-6-6-1-1-1-1--|
A----3------------6---3---------------3-3-3-3-3-3-3-3-6-6-6-6-1-1-1-1--|
D----3----------------3---------------3-3-3-3-3-3-3-3-6-6-6-6-1-1-1-1--|

Guitar 2 (Clean)
Verse
(1.29 - 1.40)
No Guitar

(1.40 - 1.51)
e----------------------8----------|
B---------9--------------9--------|
G----10---------10----------------|   (x8)
D---------------------------------|
A---------------------------------|
D---------------------------------|


Guitar 2 (Distorted)
Chorus
(1.51 - 2.13)
The rhythm is the same as for guitar 1
e---------------------------------------------------------------------|
B---------------------------------------------------------------------|
G----------------6---------------3------------------------------------|
D---------3------6-------1-------3------------------------------------|
A---------3------4-------1-------1------------------------------------|
D---------3--------------1--------------------------------------------|



Riff
(2.13 - 2.35)
Play the power chords at the start each bar
e----------------------------------------------------------------------|
B----------------------------------------------------------------------|
G-------------------------------------------------------6--5--3--5-----|
D-----3---3--5--3-----3---3----5--6---3---3--5--3----3-------------6---|
A-----3------------6------3-----------3------------6-------------------|
D-----3-------------------3-----------3--------------------------------|

e----------------------------------------------------------------------|
B----------------------------------------------------------------------|
G-------------------------------------------------------6---5----------|
D-----3---3--5--3-----3---3----5--6---3---3--5--3----3---------6-------|
A-----3------------6------3-----------3------------6-------------------|
D-----3-------------------3-----------3--------------------------------|

e----------------------------------------------------------------------|
B----------------------------------------------------------------------|
G------------------------------------------------------6--5--3--5------|
D-----3---3--5--3-----3---3----5--6---3---3--5--3----3------------6----|
A-----3------------6------3-----------3------------6-------------------|
D-----3-------------------3-----------3--------------------------------|

                                                     P.M.
                                       ...............................
e----------------------------------------------------------------------|
B----------------------------------------------------------------------|
G----------------------------------------------------------------------|
D----3---3--5--3------3---5--6---------3-3-3-3-3-3-3-3-6-6-6-6-1-1-1-1-|
A----3------------6---3----------------3-3-3-3-3-3-3-3-6-6-6-6-1-1-1-1-|
D----3----------------3----------------3-3-3-3-3-3-3-3-6-6-6-6-1-1-1-1-|

Guitar 2 (Clean)
Verse
(2.35 - 2.46)
No Guitar

(2.46 - 2.57)
e----------------------8----------|
B---------9--------------9--------|
G----10---------10----------------|   (x8)
D---------------------------------|
A---------------------------------|
D---------------------------------|

Bridge
(2.57 - 3.22)
Only the bass plays
G--------------------------------------------------------------------|
D--------------------------------------------------------------------| (x4)
A--------------------4-4-4-4-4-4-4-4-----------------1-1-1-1-1-1-1-1-|
D----3-3-3-3-3-3-3-3-----------------1-1-1-1-1-1-1-1-----------------|

Riff
(3.22 - 4.07)
Play the power chords at the start each bar
e--------------------------------------------------------------------|
B--------------------------------------------------------------------|
G-----------------------------------------------------6--5--3--5-----|
D----3---3--5--3-----3---3----5--6---3---3--5--3----3------------6---|
A----3------------6------3-----------3------------6------------------|
D----3-------------------3-----------3-------------------------------|

e--------------------------------------------------------------------|
B--------------------------------------------------------------------|
G-------------------------------------------------------6---5--------|
D----3---3--5--3-----3---3----5--6---3---3--5--3----3-----------6----|
A----3------------6------3-----------3------------6------------------|
D----3-------------------3-----------3-------------------------------|

e--------------------------------------------------------------------|
B--------------------------------------------------------------------|
G------------------------------------------------------6--5--3--5----|
D----3---3--5--3-----3----3----5--6---3---3--5--3----3------------6--|
A----3------------6-------3-----------3------------6-----------------|
D----3--------------------3-----------3------------------------------|

                                                   P.M.
                                     ................................
e--------------------------------------------------------------------|
B--------------------------------------------------------------------|
G--------------------------------------------------------------------|
D----3---3--5--3------3---5--6-------3-3-3-3-3-3-3-3-6-6-6-6-1-1-1-1-|
A----3------------6---3--------------3-3-3-3-3-3-3-3-6-6-6-6-1-1-1-1-|
D----3----------------3--------------3-3-3-3-3-3-3-3-6-6-6-6-1-1-1-1-|

End on
e-----------|
B-----------|
G-----------|
D-------3---|
A-------3---|
D-------3---|

Thanks for checking out the tab!
If you have any corrections or comments then feel free to let me know :)
Enjoy!





Comments


Popular Pendulum tabs & chords
Propane Nightmares Bass Tabs
Propane Nightmares 3 Bass Tabs
The Other Side Bass Tabs
Watercolour Chords
Self Vs Self 1 Tabs
The Vulture 2 Tabs
Watercolour Tabs
Witchcraft Tabs
The Other Side Ukulele
Watercolour Ukulele


Song lyrics



↑ Back to top | Tablatures and chords are parodies/interpretations of the original songs. You may use it for private study, scholarship, research or language learning purposes only
© 2014 AZChords.com Contact us | Privacy policy | DMCA | Add/correct tabs | Request tabs | Top 50 tabs