» » »

The Tempest Tabs (ver.4)

Artists:  A B C D E F G H I J K L M N O P Q R S T U V W X Y Z # 

The Tempest Tabs (ver.4)

Pendulum
Rating:
0/5 (0 votes)

Tabs too difficult? Try these video lessons and learn fast.
                --------------------------------------------------------------------------
                             The Tempest - Pendulum
---------------------------------------------------------------------------

Tuning: Standerd


Right first tab lol =D
erm its only rly the verses havent had time to work out intro and the last weird synth bit lol

Dist guitar comes in...
Not sure about this bit lol

Verse

e|-------------------------------------------------------------------------|
B|-------------------------------------------------------------------------|
G|-5---3---7---------------------------------------------------------------|
D|-5---3---7---4---3-------------------------------------------------------|
A|-3---1---5---4---3-------------------------------------------------------|
E|-------------6---1-------------------------------------------------------|


e|-----------------------------------------------------------------------|
B|-----------------------------------------------------------------------|
G|-----------------------------------------------------------------------|X4
D|---3h1-------1--------3h1-------1-------3h1-----1----------------------|
A|-------------------------------------------------------------------3---|
E|--------1-1----1-1---------1-1----1-1------1-1----1-1---4-66666666---4-|


Break

e|-----------------------------------------------------------------------|
B|-----------------------------------------------------------------------|
G|-----------------------------------------------------------------------|
D|--3-XXXXXX-3-XX--3 XXXX----3-XXXXXX-3-XX--3-XXXX-----------------------|X2
A|--3-XXXXXX-3-XX--3-XXXX----3-XXXXXX-3-XX--3-XXXX-----------------------|
E|--1-XXXXXX-1-XX--1-XXXX----1-XXXXXX-1-XX--1-XXXX-----------------------|

Not sure the mutes are right but there easy 2 work out where they are

e|---------------------------------------------------------------------------|
B|---------------------------------------------------------------------------|
G|---5---3---7---------------------------------------------------------------|
D|---5---3---7---6---3-------------------------------------------------------|
A|---3---1---5---6---3-------------------------------------------------------|
E|---------------4---1-------------------------------------------------------|

                         muted bit and below bit x2

Verse again

x4


Break again.


Not sure about the rest really =S
i know its not very accurate but if u mess around with what ive tabbed you can work it 
its quite simple and fun 2 play =D


thank you =D and enjoy lol



| /  slide up
| \  slide down
| h  hammer-on
| p  pull-off
| ~  vibrato
| +  harmonic
| x  Mute note
===============================================================================
            
Tabs too difficult? Try these video lessons and learn fast.




comments powered by Disqus
↑ Back to top | Tablatures and chords are parodies/interpretations of the original songs. You may use it for private study, scholarship, research or language learning purposes only