» » »

Pendulum, The Tempest Bass tabs (ver.1)

Artists:  A B C D E F G H I J K L M N O P Q R S T U V W X Y Z # 

The Tempest Bass tabs (ver.1)

Pendulum Tabs
Rating:
0/5 (0 votes)
The Tempest lessons Tabs too difficult? Try these video lessons and learn fast
                Yo. the main riff of the tempest is actually and intro of there old set
and i thought i would add that extra note just for bantour. hehe. Pritty
easy song. Ending part not so sure, but practacly perfect. Any mistakes
please comment. Comment before rateing please. A.J :D

Normal Tuning

Intro (0:46)
|-------------------------------------|
|-------------------------------------|
|-44444444-11111111----------11111111-|
|-------------------44444444----------|

|----------------------------------------|
|-----5\3-------1-3------5\3-----------1-|
|----------------------------------1h3---| x 2 both riffs
|-1-1-----1-1-1------1-1-----1-1-1-------|

|----------------------------------------|
|-----5\3-------1-3------5\3-----------1-|
|----------------------------------1h3---| x2
|-1-1-----1-1-1------1-1-----1-1-1-------|

|-------------------------------------|
|--------------------------1111111111-|
|--------------4444444444-------------|
|-11111111111-------------------------|

with distortion
|----------------------------------------|
|-----5\3-------1-3------5\3-----------1-|
|----------------------------------1h3---| x3
|-1-1-----1-1-1------1-1-----1-1-1-------|

main riff x2             (1) Optional                    
|--------------------|----------------(1)-|--------------------|
|-1h3---------1------|-1h3---------1------|-1h3---------1------|
|--------------------|--------------------|--------------------|
|-----1-11--1---1-11-|-----1-11--1---1-11-|-----1-11--1---1-11-|

|--------------------|
|--------------------|
|----------------3---| repeat riffs
|-4h666666666666---4-|

Interlude
|--------------------------------|    |---------------|
|--------------------------------|    |---------1-----|
|--------------------------------| x3 |----4--3-------| x2 both riffs
|-1--x-x-x-x--1--x-x--1--x-x-x-x-|    |-1--------4--1-|

main riff x2             (1) Optional                    
|--------------------|----------------(1)-|--------------------|
|-1h3---------1------|-1h3---------1------|-1h3---------1------|
|--------------------|--------------------|--------------------|
|-----1-11--1---1-11-|-----1-11--1---1-11-|-----1-11--1---1-11-|

|--------------------|
|--------------------| 
|----------------3---| repeat riffs
|-4h666666666666---4-|

chorus                                x3
|--------------------------------------|-----------------------------------|
|--------------------11111111----------|-------------------1111111-4444444-|
|-----------44444444----------11111111-|----------44444444-----------------|
|-111111111----------------------------|-11111111--------------------------|

End chorus
|-----------|-----------|-----------|-----------|
|-----------|-------1-3-|-----------|-----1-----|
|-------1-3-|-1-3-4-----|-------1-3-|-4-3-------|
|-1-3-4-----|-----------|-1-3-4-----|-------4-1-|


main riff x2             (1) Optional                    
|--------------------|----------------(1)-|--------------------|
|-1h3---------1------|-1h3---------1------|-1h3---------1------|
|--------------------|--------------------|--------------------|
|-----1-11--1---1-11-|-----1-11--1---1-11-|-----1-11--1---1-11-|

|--------------------|
|--------------------| 
|----------------3---| repeat riffs
|-4h666666666666---4-|

chorus                                x3
|--------------------------------------|-----------------------------------|
|--------------------11111111----------|-------------------1111111-4444444-|
|-----------44444444----------11111111-|----------44444444-----------------|
|-111111111----------------------------|-11111111--------------------------|

outro (5:33)
|---------------|-----------|------------|-----------|
|---------------|-----1-----|------------|-----------|
|---------------|-4-3-------|--------1-3-|-4-3-1-----| repeat lots 
|-111111111-3-4-|-------4-1-|-1--3-4-----|-------4-1-| till end


And thats its. Sorry if i missed anything. please rate. A.J :D
            
Submit corrections

comments powered by Disqus
↑ Back to top | Pendulum Bass for The Tempest. Lyrics for acoustic guitar and electric guitar. Tablatures and chords are parodies/interpretations of the original songs. You may use it for private study, scholarship, research or language learning purposes only