>
 >
The Tempest

The Tempest Guitar Tabs

Pendulum - The Tempest chords, tabs, tablatures, lyrics

Guitar lessons | Add/correct | Request | Top 50 tabs Artists:  A B C D E F G H I J K L M N O P Q R S T U V W X Y Z 0-9

The Tempest Guitar Tabs – Pendulum

CD, Sheet music, Poster

Do you like The Tempest? Share with your friends now
Bass TabsBass Tabs v2TabsTabs v2Tabs v3Tabs v4Tabs v5Tabs v6Tabs v7Tabs v8

Tuning: Standard

Awesome song.  Last track on the In Silico album.


INTRO:
This part is all played palm-muted and played clean.

e|-----------------------------------------------------------------------------------|
B|---------------4-4-3-----------------------------------4-4-3-----------------------|
G|-------5-5-3-3-------5-----5-5-3-3-------------5-5-3-3-------5-----3-3-1-1-0-0-----|
D|---3-3-----------------3-3---------5-5-3---3-3-----------------3-3-------------3---|
A|-----------------------------------------------------------------------------------|
E|-----------------------------------------------------------------------------------|
  PM . . . . . . . . . . . . . . . . . . .   . . . . . . . . . . . . . . . . . . .   

e|----------------------------------------------------------------------------|
B|---------------4-4-3-----------------------------------4-4-3----------------|
G|-------5-5-3-3-------5-----5-5-3-3-------------5-5-3-3-------5-----3-3------|
D|---3-3-----------------3-3---------5-5-3---3-3-----------------3-3------3---|
A|------------------------------------------------------------------------3---|
E|------------------------------------------------------------------------1---|
  PM . . . . . . . . . . . . . . . . . . .   . . . . . . . . . . . . . .  



VERSE (0:25):

e|---------------------------------------------------------------|
B|------------------4--4--4-4--4---------------------------------|
G|---5--5--5-5--5------------------3--3--3-3--3---2--2--2-2--2---|
D|---------------------------------------------------------------|  X 2
A|---------------------------------------------------------------|
E|---------------------------------------------------------------|

I think the guitar stops until about 1:51, then this is played with plenty of distortion:

e|---------------|
B|---------------|
G|---6-5-8-------|
D|---6-5-8-6-3---|
A|---4-3-6-6-3---|
E|---------4-1---|

Straight after:
VERSE 2 starts after you've played the next part twice.

e|-----------------------------------------------------------------------------------|
B|-----------------------------------------------------------------------------------|
G|-----------------------------------------------------------------------------------|
D|---1h3--------1-------1h3--------1-------1h3--------1------------------------------| X4
A|-----------------------------------------------------------1--1--1-1-1-1-1-1-3-----|
E|-------1--1-1---1--1------1--1-1---1--1------1--1-1---1--1---------------------4---|

e|----------------------------------------------------------------------------------------------|
B|----------------------------------------------------------------------------------------------|
G|----------------------------------------------------------------------------------6-5-8-------|
D|-3-3-3-3-3-3-3-3-3-3-3-3-3-3-3-3-3-3-3-3-3-3-3-3-3-3-3-3-3-3-3-3-3-3-3-3-3-3-3-3--6-5-8-6-3---X2
A|-3-3-3-3-3-3-3-3-3-3-3-3-3-3-3-3-3-3-3-3-3-3-3-3-3-3-3-3-3-3-3-3-3-3-3-3-3-3-3-3--4-3-6-6-3---|
E|-1-1-1-1-1-1-1-1-1-1-1-1-1-1-1-1-1-1-1-1-1-1-1-1-1-1-1-1-1-1-1-1-1-1-1-1-1-1-1-1--------4-1---|
  PM   . . . .   . .   . . . .   . . . .   . .   . . . .   . . . .   . .   . . . .

e|-----------------------------------------------------------------------------------|
B|-----------------------------------------------------------------------------------|
G|-----------------------------------------------------------------------------------|
D|---1h3--------1-------1h3--------1-------1h3--------1------------------------------| X 2
A|-----------------------------------------------------------1--1--1-1-1-1-1-1-3-----|
E|-------1--1-1---1--1------1--1-1---1--1------1--1-1---1--1---------------------4---|


CHORUS:

I'm not entirely sure what the strumming pattern is for this part but I've had a 
go and I think it's near enough...

e|----------------------------------------------|
B|----------------------------------------------|
G|----------------------------------------------|
D|---------------6--6-6-6/8--8-8-8--------------| X 4
A|---3--3-3-3-3--4--4-4-4/6--6-6-6-8--8-8-8-8---|
E|---1--1-1-1-1--------------------6--6-6-6-6---|


BRIDGE:

e|----------------------------------------------------------------|
B|----------------------------------------------------------------|
G|----------------------------------------------------6-5-8-------|
D|----------------------------1--3--------------------6-5-8-6-3---|
A|------------1--3---1--3--4-------------------1--3---4-3-6-6-3---|
E|---1--3--4--------------------------1--3--4---------------4-1---|


VERSE 3:

e|-----------------------------------------------------------------------------------|
B|-----------------------------------------------------------------------------------|
G|-----------------------------------------------------------------------------------|
D|---1h3--------1-------1h3--------1-------1h3--------1------------------------------| X 3
A|-----------------------------------------------------------1--1--1-1-1-1-1-1-3-----|
E|-------1--1-1---1--1------1--1-1---1--1------1--1-1---1--1---------------------4---|


CHORUS:

e|----------------------------------------------|
B|----------------------------------------------|
G|---------------6--6-6-6/8--8-8-8--------------|
D|---3--3-3-3-3--6--6-6-6/8--8-8-8-8--8-8-8-8---| X 4
A|---3--3-3-3-3--4--4-4-4/6--6-6-6-8--8-8-8-8---|
E|---1--1-1-1-1--------------------6--6-6-6-6---|


The next guitar part is after this synth 'interlude'.
(which I've tabbed because it sounds good if you pluck the strings rather than use a pick).
If you wanted to play the next synth bit it goes something like this:

e|--------------------------|
B|-----------9--6---8-9-6---|
G|-------5-8------8---------|
D|---6-8--------------------| X3
A|--------------------------|
E|--------------------------|

e|-------------------------------------------------|
B|-----------9--6---8-9-6-----------9--6-----------|
G|-------5-8------8-------------5-8------8---------|
D|---6-8--------------------6-8------------8-6-----| Repeat until the end.
A|---------------------------------------------8---|
E|-------------------------------------------------|


The last guitar part comes in at the same time the second lot of synth above does.

e|---------------------------------------------------|
B|---------------------------------------------------|
G|---------------------------------------------------|
D|---------------------------------------------------| Repeat until the end.
A|---------1-3---4-3-6-------------1-3---4-3---------|
E|---1-1-4-------------4-1---1-1-4-----------4-1-1---|


Aaaand that's it.





Comments


Popular Pendulum tabs & chords
Girl In The Fire Bass Tabs
Witchcraft Chords
Blood Sugar Tabs
Crush 1 Tabs
Mutiny Tabs
Slam Tabs
Slam 2 Tabs
The Island Part 1 Tabs
The Vulture 3 Tabs
Voodoo People Tabs


Song lyrics



↑ Back to top | Tablatures and chords are parodies/interpretations of the original songs. You may use it for private study, scholarship, research or language learning purposes only
© 2014 AZChords.com Contact us | Privacy policy | DMCA | Add/correct tabs | Request tabs | Top 50 tabs