» » »

Pendulum, The Island Tabs (ver.2)

Artists:  A B C D E F G H I J K L M N O P Q R S T U V W X Y Z # 

The Island Tabs (ver.2)

Pendulum Tabs
Rating:
0/5 (0 votes)
The Island lessons Tabs too difficult? Try these video lessons and learn fast
                "(Part1)
This song is in the key of AM

Intro

E---    -----------------------    ---------    ----------|
B-1-    -----------------------    -------3-    ----------|
G-2-    --2-0--2-2-0--2-0-5-2-0 X8 -2--2-5-2 X7 -22222222-|
D-2-    -----------------------    ---------    ----------|
A-0-    -----------------------    -0-------    ----------|
E---    -----------------------    ---------    ----------|

Repeat the strat of the main riff twice while the song fades in.


Main riff/melodey

E---------------3----------------      ----------------------------------|
B---------3-5--5--6-5--5-3-3-3-5-      ------3------3------3------3------|
G----2-2-5------------2---5-5---5   x2 -2-2-5-5-5--5-5-5--5-5-5--5-5-5---|
D--------------------------------      ----------------------------------|
A--------------------------------      ----------------------------------|
E--------------------------------      ----------------------------------|

----------------------------------------------|
--5-3-------------3------3--------------------|
-----5-4-2-----2-5-5-5--5-5-5--5-5--5-5--5--5-|
----------------------------------------------|
----------------------------------------------|
----------------------------------------------|

Chords for the verse are

-1- -3- --- -0-|
-1- -3- -1- -1-|
-2- -4- -2- -0-|
-3- -5- -2- -2-|
-3- -5- -0- -3-|
-1- -3- --- ---|
 F   G  AM   C

Chords that can go behind the chours/main riff in order are

--- -1- -0- -3-|
-1- -1- -1- -3-|
-2- -2- -0- -2-|
-2- -3- -2- -5-|
-0- -3- -3- -5-|
--- -1- --- -3-|
 AM  F   C   G
"            

comments powered by Disqus
↑ Back to top | Pendulum Tabs for The Island. Lyrics for acoustic guitar and electric guitar. Tablatures and chords are parodies/interpretations of the original songs. You may use it for private study, scholarship, research or language learning purposes only