>
 >
Slam 2

Slam 2 Guitar Tabs

Pendulum - Slam 2 chords, tabs, tablatures, lyrics

Guitar lessons | Add/correct | Request | Top 50 tabs Artists:  A B C D E F G H I J K L M N O P Q R S T U V W X Y Z 0-9

Slam 2 Guitar Tabs – Pendulum

CD, Sheet music, Poster

Do you like Slam 2? Share with your friends now
Bass TabsTabsTabs v2Tabs v3
----------------------------------------------------------------------------
                          SLAM - Pendulum
----------------------------------------------------------------------------

Tuning: Drop D

e|-------------------------------------------------------------------------|
B|-------------------------------------------------------------------------|
G|--8----------------------------------------------------------------------|
D|-----------1----4----8-4-9-8--9--8---------------------------------------|
A|--6----------------------------------------------------------------------|
D|-----------1----4----8--------9--8---------------------------------------|
2nd
e|-------------------------------------------------------------------------|
B|---------------------4--9---8------4--2---1------------------------------|
G|-------------------------------------------------------------------------|
D|-------------------------------------------------------------------------|
A|-------------------------------------------------------------------------|
D|-------------------------------------------------------------------------|
repeat

e|-------------------------------------------------------------------------|
B|-------------------------------------------------------------------------|
G|--8-7---4-3------------4-3-----------------------------------------------|
D|-------------3-4-0--1---------9---8--------------------------------------|
A|-------------------------------------------------------------------------|
D|------------------------------9---8--------------------------------------|
2nd
e|-------------------------------------------------------------------------|
B|---------------------------4--9---8------4--2---1------------------------|
G|-------------------------------------------------------------------------|
D|-------------------------------------------------------------------------|
A|-------------------------------------------------------------------------|
D|-------------------------------------------------------------------------|
repeat

breakdown...                                                  but tonight
e|-------------------------------------------------------------------------|
B|-------------------------------------------------------------------------|
G|-------------------------------------------------------------------------|
D|-------------------------------------------------------------------------|
A|-----------------------------------------6----9----11-11bu12-------------|
D|-------------------------------------------------------------------------|
on this small planet..        we're going to rock civilisation
e|-------------------------------------------------------------------------|
B|-------------------------------------------------------------------------|
G|-------------------------------------------------------------------------|
D|--------------------------------------------------------12/13------------|
A|--------6----9----11-11bu12----------------------------------------------|
D|-------------------------------------------------------------------------|

Main Riff
e|-------------------------------------------------------------------------|
B|-------------------------------------------------------------------------|
G|-8-11-13-13/14--13-11-13--13-11-6-8---8-11-13-13/14--13-11-13--8-8-/14--8|
D|-------------------------------------------------------------------------|
A|-------------------------------------------------------------------------|
D|-------------------------------------------------------------------------|

e|--------------------------------------------|
B|--------------------------------------------|
G|--------------------------------8--11--10---|
D|--------------------------------------------|
A|---6----6-4-6--9--9-6-9-11-11---------------|
D|--------------------------------------------|

e|-------------------------------------------------------------------------|
B|-------------------------------------------------------------------------|
G|-8-11-13-13/14--13-11-13--13-11-6-8---8-11-13-13/14--13-11-13--8-8-/14--8|
D|-------------------------------------------------------------------------|
A|-------------------------------------------------------------------------|
D|-------------------------------------------------------------------------|

e|-----------------------------------------------9---|
B|---------------------------------------------------|
G|--------------------------------8--11--10-8-11---8-|
D|---------------------------------------------------|
A|---6----6-4-6--9--9-6-9-11-11----------------------|
D|---------------------------------------------------|

Verse:
e|---------------------------------------------------|
B|---------------------------------------------------|
G|---------------------------------------------------|
D|---------------------------------------------------|x4
A|----6--4----------6-6-6-4-----------6--4-----------|
D|-1-------6--1-------------6-1----1-------6--1------|

Is this bass really strong enough?
e|---------------------------------------------------------------|
B|---------------------------------------------------------------|
G|---------------------------------------------------------------|
D|---4-4-7-9--9-10-10-9-7---4-4-7----4---------------------------|
A|--------------------------------7-----4--/6----/9----/6----/9--|x2
D|---------------------------------------------------------------|

e|-----------------------------------------------------------------------|
B|-----------------------------------------------------------------------|
G|-----------------------------------------------------------------------|
D|----------------------------------------------1--1-1-x-------1--1-1-x--|x2
A|-------------7----------------------6----------------------------------|
D|--4-4---4-4-4----4-4--4---4-3-2-1-1-----1-1-x---------1--1-1-x--------1|



Breakdown 2:           we're marooned on a tiny island
e|---14--------14--------14--------14-----------|
B|----------------------------------------------|
G|-11---11---11---11---11---11---11---11---11---|
D|----------------------------------------------|
A|----------------------------------------------|
E|----------------------------------------------|
in an endless sea...   confined to a spit of sand, unable to escape
e|----14-------13-------13-------13------13-----|
B|----------------------------------------------|
G|--11---11--11---10--10---10--10--10--10--10---|
D|----------------------------------------------|
A|----------------------------------------------|
E|----------------------------------------------|
             ...but tonight, it's heavy snow
e|-------------------------------------------------------------------------|
B|-------------------------------------------------------------------------|
G|-------------------------------------------------------------------------|
D|-------------------------------------------------------------------------|
A|--6----9----11--11bu12---------------------------------------------------|
E|-------------------------------------------------------------------------|

Main Riff
e|-------------------------------------------------------------------------|
B|-------------------------------------------------------------------------|
G|-8-11-13-13/14--13-11-13--13-11-6-8---8-11-13-13/14--13-11-13--8-8-/14--8|
D|-------------------------------------------------------------------------|
A|-------------------------------------------------------------------------|
D|-------------------------------------------------------------------------|

e|--------------------------------------------|
B|--------------------------------------------|
G|--------------------------------8--11--10---|
D|--------------------------------------------|
A|---6----6-4-6--9--9-6-9-11-11---------------|
D|--------------------------------------------|

e|-------------------------------------------------------------------------|
B|-------------------------------------------------------------------------|
G|-8-11-13-13/14--13-11-13--13-11-6-8---8-11-13-13/14--13-11-13--8-8-/14--8|
D|-------------------------------------------------------------------------|
A|-------------------------------------------------------------------------|
D|-------------------------------------------------------------------------|

e|-----------------------------------------------9---|
B|---------------------------------------------------|
G|--------------------------------8--11--10-8-11---8-|
D|---------------------------------------------------|
A|---6----6-4-6--9--9-6-9-11-11----------------------|
D|---------------------------------------------------|

Second Riff (is this bass eally strong enough? reprise)
e|---------------------------------------------------------------|
B|---------------------------------------------------------------|
G|---------------------------------------------------------------|
D|---4-4-7-9--9-10-10-9-7---4-4-7----4---------------------------|
A|--------------------------------7-----4--/6--/9-\6--/9-/12-\6--|
E|---------------------------------------------------------------|

e|--------------------------------------------------------|
B|--------------------------------------------------------|
G|--------------------------------------------------------|
D|---4-4-7-9--9-10-10-9-7---4-4-7----4--------------------|
A|--------------------------------7-----4--/6--/9-\6--/9--|
E|--------------------------------------------------------|
variation:
e|-----------------------------------------------------------------------|
B|-----------------------------------------------------------------------|
G|-----------------------------------------------------------------------|
D|7-9-10-10-10---9-9-7-9--4-4-------------------7-4----------------------|
A|-------------------------------4/6--9-9---4-6-----4/6--/9-\6--/9-/12-\9|
E|-----------------------------------------------------------------------|

e|---------------------------------------------------------|
B|---------------------------------------------------------|
G|---------------------------------------------------------|
D|---4-4-7-9--9-10-10-9-7---4-4-7----4---------------------|
A|--------------------------------7-----4--/6--/9-\6--/9---|
E|---------------------------------------------------------|

e|-----------------------------------------------------------------------|
B|-----------------------------------------------------------------------|
G|-----------------------------------------------------------------------|
D|7-9-10-10-10---9-9-7-9--4-4-------------------7-4----------------------|
A|-------------------------------4/6--9-9---4-6-----4/6--/9-\6--/9-/12-\9|
E|-----------------------------------------------------------------------|

Continues under heavy fuzz:
e|---------------------------------------------------------------|
B|---------------------------------------------------------------|
G|---------------------------------------------------------------|
D|---4-4-7-9--9-10-10-9-7---4-4-7----4---------------------------|
A|--------------------------------7-----4--/6----/9----/6----/9--|
E|---------------------------------------------------------------|

END

There it is full tab - any qs or cs? please rate.

| /  slide up
| \  slide down
| h  hammer-on
| p  pull-off
| ~  vibrato
| +  harmonic
| x  Mute note
============================================================================





Comments


Popular Pendulum tabs & chords
The Other Side 2 Bass Tabs
Encoder Chords
Another Planet Tabs
Comprachicos Tabs
Mutiny Tabs
Propane Nightmares 2 Tabs
The Other Side 1 Tabs
The Tempest Tabs
The Tempest 2 Tabs
The Tempest 6 Tabs


Song lyrics



↑ Back to top | Tablatures and chords are parodies/interpretations of the original songs. You may use it for private study, scholarship, research or language learning purposes only
© 2014 AZChords.com Contact us | Privacy policy | DMCA | Add/correct tabs | Request tabs | Top 50 tabs