» » »

Slam Tabs (ver.2)

Artists:  A B C D E F G H I J K L M N O P Q R S T U V W X Y Z # 

Slam Tabs (ver.2)

Pendulum
Rating:
4/5 (6 votes)

Hard to play? Try these video lessons and learn fast.
                Pendulum
Slam
Hold Your Colour
I was playin around 1 day n i worked this out.
Have some distortion, you can try playin it in different places.
It's not the whole song, but it sounds alright.

1:04
E]-------------------------------------------------------------------|
B]-------------------------------------------------------------------|
G]-------------------------------------------------------------------|
D]-------------------------------------------------------------------|
A]-------11-12-11--11--11--------------------11-12-11--11--11---12---|
E]-11-14---------14--------14-9-11-----11-14---------14-------14--11-|

1:16 (work out the rhythm)
E]--------------------------------------------|
B]--------------------------------------------|
G]--------------------------------------------|
D]--------------------------------------------|
A]--------------------------11~~11---11-12~14-|
E]-11~~11-9-11-14~~14-11-14--------14---------|

Repeat 1st part

2:34("Is this bass really strong enough?")
E]-----------------------------------------------------------------|
B]-----------------------------------------------------------------|
G]-----------------------------------------------------------------|
D]-----------------------------------------------------------------|
A]------12-12-12-14-15-14-12-12-------12-12------------------------|
E]-14-14------------------------14-14-------12-14//-11~~14~~11~~14-|

Repeat whenever.


Thats most of it, i hope its helpful.
            
Hard to play? Try these video lessons and learn fast. | Correct




comments powered by Disqus
↑ Back to top | Tablatures and chords are parodies/interpretations of the original songs. You may use it for private study, scholarship, research or language learning purposes only