» » »

Pendulum, Slam Tabs (ver.1)

Artists:  A B C D E F G H I J K L M N O P Q R S T U V W X Y Z # 

Slam Tabs (ver.1)

Pendulum Tabs
 Rating:
4/5 (10 votes)
Slam lessons Tabs too difficult? Try these video lessons and learn fast
                -----------------------------------------------------------------------------
-----------------------------------------------------------------------------


STANDARD TUNING

Any questions feel free to message me:)

-----------------------------------------------------------------------
# = Play note 4 times
^ = Bend up to
\ = Slide down

-----------------------------------------------------------------------

Work the timing for yourself :)

Intro
E]-------------------------------------------------------------------| x2
B]-------------------------------------------------------------------|
G]-------------------------------------------------------------------|
D]-------------------------------------------------------------------|
A]---18-------------13-14-13-----------------------------------------|
E]------------11-14--------------------------------------------------|

0:22
E]-------------------------------------------------------------------| x2
B]-16-15----12-11----------------------------------------------------|
G]-----------------11-12----------16-15------------------------------|
D]-----------------------12-13---------------------------------------|
A]-------------------------------------------------------------------|
E]-------------------------------------------------------------------|

1:04
E]------------------------------------------------------------------|
B]--------9-10-10-9-7-------------------9-10-10-9-7-----10----------|
G]--8-11---------------8-8-6-8-----8-11-------------8-8----8--------|
D]------------------------------------------------------------------|
A]------------------------------------------------------------------|
E]------------------------------------------------------------------|

1:16# # #       #  #  #           #  #  #  #                        
E]-------------------------------------------------------------------|
B]--------------------------------9--9--9--9-------------------------|
G]--8-8-8-8-6-8-11-11-11-11-8-11-------------8-11-10-----------------|
D]-------------------------------------------------------------------|
A]-------------------------------------------------------------------|
E]-------------------------------------------------------------------|

1:27
E]------------------------------------------------------------------|
B]--------9-10-10-9-7-------------------9-10-10-9-7-----10----------|
G]--8-11---------------8-8-6-8-----8-11-------------8-8----8--------|
D]------------------------------------------------------------------|
A]------------------------------------------------------------------|
E]------------------------------------------------------------------|

    # # #       #  #  #           #  #  #  #
E]--------------------------------------------------------9----------|
B]--------------------------------9--9--9--9-------------------------|
G]--8-8-8-8-6-8-11-11-11-11-8-11-------------8-11-10-8-11---8--------|
D]-------------------------------------------------------------------|
A]-------------------------------------------------------------------|
E]-------------------------------------------------------------------|

---------------------------------------------------------
Instrumental (Bass)
During the instrumental, you can hear this a few times.

E]-----11--|
B]---------|
G]---------|
D]---------|
A]---------|
E]---------|

---------------------------------------------------------

2:34
E]--------------------------------------------------------------| x2
B]-------------12-13-13-12--------------------------------------|
G]---11-11-14--------------14-11-11-14-14----11--8^11-8^11------|
D]----------------------------------------14--------------------|
A]--------------------------------------------------------------|
E]--------------------------------------------------------------|

-----------------
INSTRUMENTAL BASS
-----------------

3:39
E]------------------------------------------------------------------|
B]--------9-10-10-9-7-------------------9-10-10-9-7-----10----------|
G]--8-11---------------8-8-6-8-----8-11-------------8-8----8--------|
D]------------------------------------------------------------------|
A]------------------------------------------------------------------|
E]------------------------------------------------------------------|

    # # #       #  #  #           #  #  #  #                        
E]-------------------------------------------------------------------|
B]--------------------------------9--9--9--9-------------------------|
G]--8-8-8-8-6-8-11-11-11-11-8-11-------------8-11-10-----------------|
D]-------------------------------------------------------------------|
A]-------------------------------------------------------------------|
E]-------------------------------------------------------------------|


E]------------------------------------------------------------------|
B]--------9-10-10-9-7-------------------9-10-10-9-7-----10----------|
G]--8-11---------------8-8-6-8-----8-11-------------8-8----8--------|
D]------------------------------------------------------------------|
A]------------------------------------------------------------------|
E]------------------------------------------------------------------|

    # # #       #  #  #           #  #  #  #                        
E]-------------------------------------------------------------------|
B]--------------------------------9--9--9--9-------------------------|
G]--8-8-8-8-6-8-11-11-11-11-8-11-------------8-11-10\----------------|
D]-------------------------------------------------------------------|
A]-------------------------------------------------------------------|
E]-------------------------------------------------------------------|

                          
E]-------------------------------------------------------------------|
B]---------9-9-10-10-9-----------------------------------------------|
G]--8-8-11-------------11-8-8-11-11----8-----------8^11-8^11---------|
D]----------------------------------11-------------------------------|
A]-------------------------------------------------------------------|
E]-------------------------------------------------------------------|

E]-------------------------------------------------------------------|
B]---------9-9-10-10-9-----------------------------------------7-----|
G]--8-8-11-------------11-8-8-11-11----8-----------8^11-8^11-----8---|
D]----------------------------------11-------------------------------|
A]-------------------------------------------------------------------|
E]-------------------------------------------------------------------|

E]-------------------------------------------------------------------|
B]--------9-10-10-10-9------------------------------------------7----|
G]--8-11---------------10-8-8--------8----11-11----8--8^11-8^11---8--|
D]-------------------------------------11-------11-------------------|
A]-------------------------------------------------------------------|
E]-------------------------------------------------------------------|

FADE TO END
            
Submit corrections

comments powered by Disqus
↑ Back to top | Pendulum Tabs for Slam. Lyrics for acoustic guitar and electric guitar. Tablatures and chords are parodies/interpretations of the original songs. You may use it for private study, scholarship, research or language learning purposes only