» » »

Mutiny Tabs (ver.1)

Artists:  A B C D E F G H I J K L M N O P Q R S T U V W X Y Z # 

Mutiny Tabs (ver.1)

Pendulum
Rating:
4/5 (3 votes)

Hard to play? Try these video lessons and learn fast.
                
Tuning: Drop D

This may be more a synth then guitar, but it sounds wicked anyway. I'm missing some 
I know,
I'll try and work on them. This will definitely get you started anyway. Any corrections 
free to correct.

Intro

e|------------------------------------------------------------|
B|------------------------------------------------------------|
G|------------------------------------------------------------|
D|-----6---6----6-6--6----------------------------------------|
A|------------------------------------------------------------|
D|------------------------------------------------------------|

Main Riff/Chorus

e|-------------------------------------------------------|
B|-------------------------------------------------------|
G|-------------------------------------------------------|
D|-------------------------------------------------------|
A|-------------------------------------------4--4--4-6---|
D|---6--6--6--6-8-9--9--9-8-6-8-9--9--9--9-9-------------|

e|---------------------------------|
B|---------------------------------|
G|---------------------------------| Sounds like a guitar is also playing this one 
up.
D|----------------------------5b---|
A|---11----9----6---------6--------|
D|-------------------9-------------|

e|-------------------------------------------------------|
B|-------------------------------------------------------|
G|-------------------------------------------------------|
D|-------------------------------------------------------|
A|-------------------------------------------4--4--4-6---|
D|---6--6--6--6-8-9--9--9-8-6-8-9--9--9--9-9-------------|

e|--------------------------------------------|
B|--------------------------------------------|
G|--------------------------------------------|
D|------------------6----5----9--8--6--8--6---|
A|------------------7----6--------------------|
D|---6----8----9------------------------------|

Next Riff

e|---------------------------------------------------4---------|
B|-------------------------------------------------------------|
G|-----7---6---4-------------4------7---6---4------------4-----|
D|---6---6---6---6-4-6--6--6---6--6---6---6---6-4-6----6---6---|
A|-------------------------------------------------------------|
D|-------------------------------------------------------------|


e|----------------------------------------|
B|----------------------------------------|
G|---------------------------------4--6---|
D|------------------------------6---------|
A|---9--8----9--8----9--8-----------------|
D|---------------------------6------------|


e|---------------------------------------------------4---------|
B|-------------------------------------------------------------|
G|-----7---6---4-------------4------7---6---4------------4-----|
D|---6---6---6---6-4-6--6--6---6--6---6---6---6-4-6----6---6---|
A|-------------------------------------------------------------|
D|-------------------------------------------------------------|


e|------------------------------------|
B|------------------------------------|
G|------------------------------------|
D|--------------------6--9----9--11---|
A|---2--4----6--8---------------------|
D|------------------------------------|


e|-------------------------------------------------------------------|
B|-------------------------------------------------------------------|
G|-------------------------------------------------------------------|
D|-------------------------------------------------------------------|
A|-------------------------------------------------------------------|
D|---1---1---1---1---1---1---1---1---1---1---1---1---1---1---1---1---|


Repeat the whole thing except the intro.

SOLO (I can't figure this one out sorry guys... I'll work on it)

You can play this underneath instead.

e|-------------------------------|
B|-------------------------------|
G|-------------------------------|
D|---2--2--2-0-2--2-0-2--2-0-2---|
A|---2--2--2-0-2--2-0-2--2-0-2---|
D|---2--2--2-0-2--2-0-2--2-0-2---|


After Solo

e|----------------------------------------------------------------|
B|----------------------------------------------------------------|
G|----------------------------------------------------------------|
D|----------------------------------------------------------------|
A|-----------------6-6--7-6-4-------------------------------------|
D|---6-6-6--9-9-9-------------9-8--6-6-6--9-9-9--1-1--1-1-4-5-1---|

Play to end.
            
Hard to play? Try these video lessons and learn fast. | Correct




comments powered by Disqus
↑ Back to top | Tablatures and chords are parodies/interpretations of the original songs. You may use it for private study, scholarship, research or language learning purposes only