» » »

Pendulum, Immunize Tabs (ver.1)

Artists:  A B C D E F G H I J K L M N O P Q R S T U V W X Y Z # 

Immunize Tabs (ver.1)

Pendulum Tabs
 Rating:
4/5 (4 votes)
Immunize lessons Tabs too difficult? Try these video lessons and learn fast
                this is the tab for Immunize by Pendulum of they're new album Immersion.
Tuning:D,a,d,g,b,e
this bit is after the intro.

e------------------------------------------|
b------------------------------------------|
g------------------------------------------|
d-1-1-x-x--4-4-x-x--6-6-8-11-13-1-1-1------|
a-1-1-x-x--4-4-x-x--6-6-8-11-13-1-1-1------|
D-1-1-x-x--4-4-x-x--6-6-8-11-13-1-1-1------|

guitar 2

e-1/4--4/6--8/11--13--  then after a while, it goes.  e-12-10-12-13-13-13-13-|
b---------------------                                b----------------------|
g---------------------                                g----------------------|
d---------------------                                d----------------------|
a---------------------                                a----------------------|
D---------------------                                D----------------------|

e-12-12-12-12-12-|
b----------------|
g----------------|
d----------------|
a----------------|
D----------------|


then


e-----------|       then, theres a little bit that goes
b-----------|
g-----------|
d-1---------|  x2
a-1---------|
D-1---------|

like this


e-------------------------------------------------------|
b-------------------------------------------------------|
g------7-7-7-7-7-7-7-7-----7-7-7-7b(9)-7b(9)-7b(9)-7-7--|
d--1--------------------1-------------------------------|
a--1--------------------1-------------------------------|
D--1--------------------1-------------------------------|

chorus

ps, there 1's, not 11s.
e---------------------------------------|
b---------------------------------------|
g---------------------------------------|
d--1111111-4444444-66666-8-11-13-1-1-1--|
a--1111111-4444444-66666-8-11-13-1-1-1--|
D--1111111-4444444-66666-8-11-13-1-1-1--|


then it goes

e----------------------|
b----------------------|
g----------------------|
d--888-6-8-9999-88888--|
a--888-6-8-9999-88888--|
D--888-6-8-9999-88888--|


guitar 2


e--------10-7-9-9-9-9-         e-10-10-10-9--10-10-10-9--12-13-12-|
b--7-7----------------         b----------------------------------|
g---------------------part 2   g----------------------------------|
d---------------------         d----------------------------------|
a---------------------         a----------------------------------|
D---------------------         D----------------------------------|
            
Submit corrections

comments powered by Disqus
↑ Back to top | Pendulum Tabs for Immunize. Lyrics for acoustic guitar and electric guitar. Tablatures and chords are parodies/interpretations of the original songs. You may use it for private study, scholarship, research or language learning purposes only