>
 >
Granite

Granite Guitar Tabs

Pendulum - Granite chords, tabs, tablatures, lyrics

Guitar lessons | Add/correct | Request | Top 50 tabs Artists:  A B C D E F G H I J K L M N O P Q R S T U V W X Y Z 0-9

Granite Guitar Tabs – Pendulum

CD, Sheet music, Poster

Do you like Granite? Share with your friends now
Bass TabsChordsTabsUkulele
----------------------------------------------------------------------------
----------------------------------------------------------------------------

Tuning: Standard

Slow Intro:
e|-------------------------------------------------------------------------|
B|-------------------12~~11~~-----------7-----8~-------12-----14~----------|
G|-------------------------------------------------------------------------|
D|-(2)---------------9~~-8~~---------2---------(2)-----9------12~----------|
A|-------------------------------------------------------------------------|
E|-(0)-----------------------------------------(0)-------------------------|

e|-------------------------------------------------------------------------|
B|------5---3-2-----3-2---------2------------------------------------------|
G|---3--------------------3-------3-4-----0--------------------------------|
D|----------------------------------------------2-4------------------------|
A|-------------------------------------------------------------------------|
E|-------------------------------------------------------------------------|
Guitar Enters:
e|----------------------------------------|
B|--------7--7---------------7--10-7------|
G|--6---9--9---9---------6-9--------------|
D|----------------------------------------|x4
A|----------------------------------------|
E|----------------------------------------|
last two repeats, 2nd Guitar:
e|---------------------------------------------------------------|
B|---------------------------------------------------------------|
G|---------------------------------------------------------------|
D|---------------------------------------------------------------|
A|---------------------------------------------------------------|
E|2-2-2-2-2-2-2-2-2-2-2-2-2-2-2-2-2-2-2-2-2-2-2-2-2-2-2-2-2-2-2-2|

Heavy Bit:
e|------------------------------------------------------------|
B|--10-12-13-----------7---7----10-12-13------------7-10-7----|
G|------------11---6--9---9---9-----------11----6-9-----------|
D|------------------------------------------------------------|
A|------------------------------------------------------------|
E|------------------------------------------------------------|
2nd
e|------------------------------------------------------------|
B|------------------------------------------------------------|
G|------------------------------------------------------------|
D|-------------------------------------------------2----------|
A|---------------------------------------------2-4------------|
E|2--2--2-2-2--2--2--2-2-2--2--2--2-2-2--2-2-2----------------|
... (2nd loop)
e|------------------------------------------------------------|
B|--10-12-13-----------7---7----10-12-13------------7-10-7----|
G|------------11---6--9---9---9-----------11----6-9-----------|
D|------------------------------------------------------------|
A|------------------------------------------------------------|
E|------------------------------------------------------------|
2nd
e|------------------------------------------------------------|
B|------------------------------------------------------------|
G|------------------------------------------------------------|
D|---------------------------------------------------7--------|
A|-----------------------------------------------7-9----------|
E|2--2--2-2-2--4--4--4-4-4--5--5--5-5-5--7-7-7-7--------------|
.. (3rd loop)
e|------------------------------------------------------------|
B|--10-12-13-----------7---7----10-12-13------------7-10-7----|
G|------------11---6--9---9---9-----------11----6-9-----------|
D|------------------------------------------------------------|
A|------------------------------------------------------------|
E|------------------------------------------------------------|
2nd
e|------------------------------------------------------------|
B|------------------------------------------------------------|
G|------------------------------------------------------------|
D|-------------------------------------------------2----------|
A|---------------------------------------------2-4------------|
E|2--2--2-2-2--2--2--2-2-2--2--2--2-2-2--2-2-2----------------|
... (final loop)
e|------------------------------------------------------------|
B|--10-12-13-------------7---7----10-12-13--------------------|
G|-------------11----6--9---9---9------------11---------------|
D|-------------------------------------------------4-4--4-4---|
A|------------------------------------------------------------|
E|------------------------------------------------------------|
2nd
e|------------------------------------------------------------|
B|------------------------------------------------------------|
G|------------------------------------------------------------|
D|------------------------------------------------------------|
A|---------------------------2---2-2-2--2--0-0-0--------------|
E|2---2-2-2--2---0-0-0-0-0------------------------------------|

Verse:
e|-------------------------------------------------------------------------|
B|-------------------------------------------------------------------------|
G|-------------------------------------------------------------------------|
D|-------------------------------------------------------------------------|
A|--------------------------------------------------------7-9--9-9-9-------|
E|--0--2--2-2-2-5-5-5--0-2--2-2-2-5-5-5--0-2--2-2-2-5-5-5------------0-0-0-|

e|-------------------------------------------------------------------------|
B|-------------------------------------------------------------------------|
G|-------------------------------------------------------------------------|
D|-------------------------------------------------------------------------|
A|--------------------------------------------------------7-9--9-9-9-------|
E|--0--2--2-2-2-5-5-5--0-2--2-2-2-5-5-5--0-2--2-2-2-5-5-5------------------|

1st
e|----------------------------------------------------------------------|
B|--------------------------12~10~--------------------------------------|
G|-----11~--9~--8~--6~--2~----------------------------------------------|
D|-/4-------------------------------------------------------------------|
A|----------------------------------------------------------------------|
E|----------------------------------------------------------------------|
2nd
e|----------------------------------------------------------------------|
B|----------------------------------------------------------------------|
G|----------------------------------------------------------------------|
D|----------------------------------------------------------------------|
A|--0--2--2-2-2---5-5--0-2--2-2-2---5-5--0-2--2-2-2---5-5--0-2-2-2------|
E|----------------------------------------------------------------------|

e|-------------------------------------------------------------------------|
B|-------------------------------------------------------------------------|
G|-------------------------------------------------------------------------|
D|-------------------------------------------------------------------------|
A|--------------------------------------------------------7-9--9-9-9-------|
E|--0--2--2-2-2-5-5-5--0-2--2-2-2-5-5-5--0-2--2-2-2-5-5-5------------0-0-0-|

e|-------------------------------------------------------------------------|
B|-------------------------------------------------------------------------|
G|-------------------------------------------------------------------------|
D|-------------------------------------------------------------------------|
A|--------------------------------------------------------7-9--9-9-9-------|
E|--0--2--2-2-2-5-5-5--0-2--2-2-2-5-5-5--0-2--2-2-2-5-5-5------------------|

1st
e|-------------------------------------------------------------------------|
B|------------------12~10~-9~-7~-5~----------------------------------------|
G|-----11~-9~-8~6~2~-------------------------------------------------------|
D|-/4----------------------------------------------------------------------|
A|-------------------------------------------------------------------------|
E|-------------------------------------------------------------------------|
2nd
e|----------------------------------------------------------------------|
B|----------------------------------------------------------------------|
G|----------------------------------------------------------------------|
D|----------------------------------------------------------------------|
A|--0--2--2-2-2---5-5--0-2--2-2-2---5-5--0-2--2-2-2---5-5--0-2-2-2------|
E|----------------------------------------------------------------------|

Bridge
e|-----------------------------------------------------------------------|
B|-----------------------------------------------------------------------|
G|-----------------------------------------------------------------------|
D|--4---------4---------4--4-7-------4------4----------------------------|x2
A|-----------------------------------------------------------------------|
E|---2---2---2-2---2--2--2------------2--2-2-2---2---2--3--2-2-2---------|

Chorus
1st
e|-------------------------------------------------------------------------|
B|------------------/14-----------------------------/14--------------------|
G|-------------------------------------------------------------------------|
D|-/9----------------------------------------------------------------------|
A|-------------------------------------------------------------------------|
E|-----------------------------------/5------------------------------------|
2nd
e|-------------------------------------------------------------------------|
B|-------------------------------------------------------------------------|
G|-------------------------------------------------------------------------|
D|-4-5-5-5-5-5-5-5-5-4-4-4-4-4-4-4-4-7-7-7-7-7-7-7-7-4-4-4-4-4-4-4-4-------|
A|-------------------------------------------------------------------------|
E|-------------------------------------------------------------------------|

...
e|-------------------------------------------------------------------------|
B|-------------------------------------------------------------------------|
G|-------------------------------------------------------------------------|
D|---7-9--7-9--7-9--7-9--7-9----9-10--9-10--9-10--9-10-9-7-----------------|
A|-------------------------------------------------------------------------|
E|-------------------------------------------------------------------------|

Heavy Bit 2:
e|------------------------------------------------------------|
B|--10-12-13-----------7---7----10-12-13------------7-10-7----|
G|------------11---6--9---9---9-----------11----6-9-----------|
D|------------------------------------------------------------|
A|------------------------------------------------------------|
E|------------------------------------------------------------|
2nd
e|------------------------------------------------------------|
B|------------------------------------------------------------|
G|------------------------------------------------------------|
D|-------------------------------------------------2----------|
A|---------------------------------------------2-4------------|
E|2--2--2-2-2--2--2--2-2-2--2--2--2-2-2--2-2-2----------------|
... (2nd loop)
e|------------------------------------------------------------|
B|--10-12-13-----------7---7----10-12-13------------7-10-7----|
G|------------11---6--9---9---9-----------11----6-9-----------|
D|------------------------------------------------------------|
A|------------------------------------------------------------|
E|------------------------------------------------------------|
2nd
e|------------------------------------------------------------|
B|------------------------------------------------------------|
G|------------------------------------------------------------|
D|---------------------------------------------------7--------|
A|-----------------------------------------------7-9----------|
E|2--2--2-2-2--4--4--4-4-4--5--5--5-5-5--7-7-7-7--------------|
.. (3rd loop)
e|------------------------------------------------------------|
B|--10-12-13-----------7---7----10-12-13------------7-10-7----|
G|------------11---6--9---9---9-----------11----6-9-----------|
D|------------------------------------------------------------|
A|------------------------------------------------------------|
E|------------------------------------------------------------|
2nd
e|------------------------------------------------------------|
B|------------------------------------------------------------|
G|------------------------------------------------------------|
D|-------------------------------------------------2----------|
A|---------------------------------------------2-4------------|
E|2--2--2-2-2--2--2--2-2-2--2--2--2-2-2--2-2-2----------------|
... (final loop)
e|------------------------------------------------------------|
B|--10-12-13-------------7---7----10-12-13--------------------|
G|-------------11----6--9---9---9------------11---------------|
D|-------------------------------------------------4-4--4-4---|
A|------------------------------------------------------------|
E|------------------------------------------------------------|
2nd
e|------------------------------------------------------------|
B|------------------------------------------------------------|
G|------------------------------------------------------------|
D|------------------------------------------------------------|
A|---------------------------2---2-2-2--2--0-0-0--------------|
E|2---2-2-2--2---0-0-0-0-0------------------------------------|


Verse:
e|-------------------------------------------------------------------------|
B|-------------------------------------------------------------------------|
G|-------------------------------------------------------------------------|
D|-------------------------------------------------------------------------|
A|--------------------------------------------------------7-9--9-9-9-------|
E|--0--2--2-2-2-5-5-5--0-2--2-2-2-5-5-5--0-2--2-2-2-5-5-5------------0-0-0-|

e|-------------------------------------------------------------------------|
B|-------------------------------------------------------------------------|
G|-------------------------------------------------------------------------|
D|-------------------------------------------------------------------------|
A|--------------------------------------------------------7-9--9-9-9-------|
E|--0--2--2-2-2-5-5-5--0-2--2-2-2-5-5-5--0-2--2-2-2-5-5-5------------------|

1st
e|----------------------------------------------------------------------|
B|--------------------------12~10~--------------------------------------|
G|-----11~--9~--8~--6~--2~----------------------------------------------|
D|-/4-------------------------------------------------------------------|
A|----------------------------------------------------------------------|
E|----------------------------------------------------------------------|
2nd
e|----------------------------------------------------------------------|
B|----------------------------------------------------------------------|
G|----------------------------------------------------------------------|
D|----------------------------------------------------------------------|
A|--0--2--2-2-2---5-5--0-2--2-2-2---5-5--0-2--2-2-2---5-5--0-2-2-2------|
E|----------------------------------------------------------------------|

e|-------------------------------------------------------------------------|
B|-------------------------------------------------------------------------|
G|-------------------------------------------------------------------------|
D|-------------------------------------------------------------------------|
A|--------------------------------------------------------7-9--9-9-9-------|
E|--0--2--2-2-2-5-5-5--0-2--2-2-2-5-5-5--0-2--2-2-2-5-5-5------------0-0-0-|

e|-------------------------------------------------------------------------|
B|-------------------------------------------------------------------------|
G|-------------------------------------------------------------------------|
D|-------------------------------------------------------------------------|
A|--------------------------------------------------------7-9--9-9-9-------|
E|--0--2--2-2-2-5-5-5--0-2--2-2-2-5-5-5--0-2--2-2-2-5-5-5------------------|

The Future...
e|-------------------------------------------------------------------------|
B|---10--10-10-10-10-10-10-9---5-7----5----4------5555-44444-22222-0000----|
G|-------------------------------------------------------------------------|
D|---7---7--7--7--7--7--7--6---2-5----2----1-------------------------------|
A|-------------------------------------------------------------------------|
E|-------------------------------------------------------------------------|

Bridge
e|---------------------------------------------------------------------|
B|---------------------------------------------------------------------|
G|---------------------------------------------------------------------|
D|--4---------4---------4--4---7-----4------4--------------------------|x3
A|---------------------------------------------------------------------|
E|---2---2---2-2---2--2--2------------2--2-2-2---2---2-3--2-2-2--------|
                                             this is a new way
e|---------------------------------------------------------------------|
B|---------------------------------------------------------------------|
G|---------------------------------------------------------------------|
D|--4---------4---------4--4---7-----4------4--------------------------|
A|---------------------------------------------------------------------|
E|---2---2---2-2---2--2--2------------2--2-2-2-------------------------|

e|---------------------------------------------------------------------|
B|---------------------------------------------------------------------|
G|---------------------------------------------------------------------|
D|--4---------4---------4--4---7-----4------4--------------------------|x4
A|---------------------------------------------------------------------|
E|---2---2---2-2---2--2--2------------2--2-2-2---2---2-3--2-2-2--------|

Solo:
e|----------------------------------------------------------------------|
B|------10-----------13---12-10-------------------------13--12-10-------|
G|--11-----11-9----11----------------9-11-9-11-9-11---11---------11-----|
D|-------------11-----------------------------------11------------------|
A|----------------------------------------------------------------------|
E|----------------------------------------------------------------------|
...
e|----------------------------------------------------------------------|
B|-------10-----------13--12-10---------------------------13--12-10-----|
G|--11-----11-9----11---------11-9----9-11-9-11-9-11---11---------11----|
D|-------------11------------------------------------11-----------------|
A|----------------------------------------------------------------------|
E|----------------------------------------------------------------------|
...
e|----------------------------------------------------------------------|
B|------10-----------13---12-10-------------------------13--12-10-------|
G|--11-----11-9----11---------------9-11-9-11-9-11---11----------11-----|
D|-------------11----------------------------------11-------------------|
A|----------------------------------------------------------------------|
E|----------------------------------------------------------------------|
...
e|-----------------------------------------------------------------------|
B|-------10-----------13--12-10---------------------------13---12---10---|
G|--11-----11-9----11---------11-9---9-11-9-11-9-11---11---------------11|
D|-------------11-----------------------------------11-------------------|
A|-----------------------------------------------------------------------|
E|-----------------------------------------------------------------------|

| /  slide up
| \  slide down
| h  hammer-on
| p  pull-off
| ~  vibrato
| +  harmonic
| x  Mute note
| () Ghost Note
============================================================================





Comments


Popular Pendulum tabs & chords
Propane Nightmares 1 Bass Tabs
The Tempest Bass Tabs
Propane Nightmares Chords
Crush 2 Tabs
Propane Nightmares 1 Tabs
Propane Nightmares 3 Tabs
The Tempest 2 Tabs
Witchcraft Tabs
The Island Part 1 Ukulele
The Other Side Ukulele


Song lyrics



↑ Back to top | Tablatures and chords are parodies/interpretations of the original songs. You may use it for private study, scholarship, research or language learning purposes only
© 2014 AZChords.com Contact us | Privacy policy | DMCA | Add/correct tabs | Request tabs | Top 50 tabs