>
 >
Granite

Granite Bass Tabs

Pendulum - Granite chords, tabs, tablatures, lyrics

Guitar lessons | Add/correct | Request | Top 50 tabs Artists:  A B C D E F G H I J K L M N O P Q R S T U V W X Y Z 0-9

Granite Bass Tabs – Pendulum

CD, Sheet music, Poster

Do you like Granite? Share with your friends now
Bass TabsChordsTabsUkulele
----------------------------------------------------------------------------
----------------------------------------------------------------------------

Tuning: Standard

Cheers to Chris Colyer for a great guitar tab which helped me alot

Probably not 100% right but close enough that you can play along, 
comment if you see any mistakes but don't be a asshole about it.

Bass fades in around 0:39
G|---------------------------------------------------------------|
D|---------------------------------------------------------------|
A|---------------------------------------------------------------|
E|2-2-2-2-2-2-2-2-2-2-2-2-2-2-2-2-2-2-2-2-2-2-2-2-2-2-2-2-2-2-2-2|

Main Riff
G|------------------------------------------------------------|
D|-------------------------------------------------2----------|
A|---------------------------------------------2-4------------|
E|2--2--2-2-2--2--2--2-2-2--2--2--2-2-2--2-2-2----------------|

G|------------------------------------------------------------|
D|---------------------------------------------------7--------|
A|-----------------------------------------------7-9----------|
E|2--2--2-2-2--4--4--4-4-4--5--5--5-5-5--7-7-7-7--------------|

G|------------------------------------------------------------|
D|-------------------------------------------------2----------|
A|---------------------------------------------2-4------------|
E|2--2--2-2-2--2--2--2-2-2--2--2--2-2-2--2-2-2----------------|

G|------------------------------------------------------------|
D|------------------------------------------------------------|
A|---------------------------2---2-2-2--2--0-0-0--------------|
E|2---2-2-2--2---0-0-0-0-0------------------------------------|

Verse
G|-------------------------------------------------------------------------|
D|-------------------------------------------------------------------------|
A|--------------------------------------------------------7-9--9-9-9-------|
E|--0--2--2-2-2-5-5-5--0-2--2-2-2-5-5-5--0-2--2-2-2-5-5-5------------0-0-0-|

G|-------------------------------------------------------------------------|
D|-------------------------------------------------------------------------|
A|--------------------------------------------------------7-9--9-9-9-------|
E|--0--2--2-2-2-5-5-5--0-2--2-2-2-5-5-5--0-2--2-2-2-5-5-5------------------|

G|----------------------------------------------------------------------|
D|----------------------------------------------------------------------|
A|--0--2--2-2-2---5-5--0-2--2-2-2---5-5--0-2--2-2-2---5-5--0-2-2-2------|
E|----------------------------------------------------------------------|

G|-------------------------------------------------------------------------|
D|-------------------------------------------------------------------------|
A|--------------------------------------------------------7-9--9-9-9-------|
E|--0--2--2-2-2-5-5-5--0-2--2-2-2-5-5-5--0-2--2-2-2-5-5-5------------0-0-0-|

G|-------------------------------------------------------------------------|
D|-------------------------------------------------------------------------|
A|--------------------------------------------------------7-9--9-9-9-------|
E|--0--2--2-2-2-5-5-5--0-2--2-2-2-5-5-5--0-2--2-2-2-5-5-5------------------|

G|----------------------------------------------------------------------|
D|----------------------------------------------------------------------|
A|--0--2--2-2-2---5-5--0-2--2-2-2---5-5--0-2--2-2-2---5-5--0-2-2-2------|
E|----------------------------------------------------------------------|

Bridge
G|-----------------------------------------------------------------------|
D|--4---------4---------4--4-7-------4------4----------------------------|x2
A|-----------------------------------------------------------------------|
E|---2---2---2-2---2--2--2------------2--2-2-2---2---2--3--2-2-2---------|

Chorus (the rhythm here is kinda tricky, listen really carefully to the song)
G|-------------------------------------------------------------------------|
D|-------------------------------------------------------------------------|
A|-------------------------------------------------------------------------|
E|-2-3-3-3-3-3-3-3-3-2-2-2-2-2-2-2-2-5-5-5-5-5-5-5-5-2-2-2-2-2-2-2-2-------|

G|-------------------------------------------------------------------------|
D|-------------------------------------------------------------------------|
A|-------------------------------------------------------------------------|
E|---5-7--5-7--5-7--5-7--5-7----7-8--7-8--7-8--7-8--7-5--------------------|

Main Riff
G|------------------------------------------------------------|
D|-------------------------------------------------2----------|
A|---------------------------------------------2-4------------|
E|2--2--2-2-2--2--2--2-2-2--2--2--2-2-2--2-2-2----------------|

G|------------------------------------------------------------|
D|---------------------------------------------------7--------|
A|-----------------------------------------------7-9----------|
E|2--2--2-2-2--4--4--4-4-4--5--5--5-5-5--7-7-7-7--------------|

G|------------------------------------------------------------|
D|-------------------------------------------------2----------|
A|---------------------------------------------2-4------------|
E|2--2--2-2-2--2--2--2-2-2--2--2--2-2-2--2-2-2----------------|

G|------------------------------------------------------------|
D|------------------------------------------------------------|
A|---------------------------2---2-2-2--2--0-0-0--------------|
E|2---2-2-2--2---0-0-0-0-0------------------------------------|

Verse
G|-------------------------------------------------------------------------|
D|-------------------------------------------------------------------------|
A|--------------------------------------------------------7-9--9-9-9-------|
E|--0--2--2-2-2-5-5-5--0-2--2-2-2-5-5-5--0-2--2-2-2-5-5-5------------0-0-0-|

G|-------------------------------------------------------------------------|
D|-------------------------------------------------------------------------|
A|--------------------------------------------------------7-9--9-9-9-------|
E|--0--2--2-2-2-5-5-5--0-2--2-2-2-5-5-5--0-2--2-2-2-5-5-5------------------|

G|----------------------------------------------------------------------|
D|----------------------------------------------------------------------|
A|--0--2--2-2-2---5-5--0-2--2-2-2---5-5--0-2--2-2-2---5-5--0-2-2-2------|
E|----------------------------------------------------------------------|

G|-------------------------------------------------------------------------|
D|-------------------------------------------------------------------------|
A|--------------------------------------------------------7-9--9-9-9-------|
E|--0--2--2-2-2-5-5-5--0-2--2-2-2-5-5-5--0-2--2-2-2-5-5-5------------0-0-0-|

G|-------------------------------------------------------------------------|
D|-------------------------------------------------------------------------|
A|--------------------------------------------------------7-9--9-9-9-------|
E|--0--2--2-2-2-5-5-5--0-2--2-2-2-5-5-5--0-2--2-2-2-5-5-5------------------|

The Future...(not sure this is right, comment if any problems)
G|--------------------------------------------------------------------------|
D|--------------------------------------------------------------------------|
A|--------------------------------------0-2--2-2-2-5-5-5--0--2--2-2-2-5-5-5-|
E|--0--2--2-2-2-5-5-5--0-2--2-2-2-5-5-5-------------------------------------|

G|--------------------------------------------------------------------------|
D|--------------------------------------------------------------------------|
A|--------------------------------------0-2--2-2-2-5-5-5--0--2--2-2-2-5-5-5-|
E|--0--2--2-2-2-5-5-5--0-2--2-2-2-5-5-5-------------------------------------|
 
Bridge
G|---------------------------------------------------------------------|
D|--4---------4---------4--4---7-----4------4--------------------------|x3
A|---------------------------------------------------------------------|
E|---2---2---2-2---2--2--2------------2--2-2-2---2---2-3--2-2-2--------|
                                             
G|---------------------------------------------------------------------|
D|--4---------4---------4--4---7-----4------4--------------------------|
A|---------------------------------------------------------------------|
E|---2---2---2-2---2--2--2------------2--2-2-2-------------------------|

G|---------------------------------------------------------------------|
D|--4---------4---------4--4---7-----4------4--------------------------|x4
A|---------------------------------------------------------------------|
E|---2---2---2-2---2--2--2------------2--2-2-2---2---2-3--2-2-2--------|

Guitar Solo (again not sure about this)
G|------------------------------------------------------------|
D|-------------------------------------------------2----------|
A|---------------------------------------------2-4------------|
E|2--2--2-2-2--2--2--2-2-2--2--2--2-2-2--2-2-2----------------|

G|------------------------------------------------------------|
D|---------------------------------------------------7--------|
A|-----------------------------------------------7-9----------|
E|2--2--2-2-2--4--4--4-4-4--5--5--5-5-5--7-7-7-7--------------|

G|------------------------------------------------------------|
D|-------------------------------------------------2----------|
A|---------------------------------------------2-4------------|
E|2--2--2-2-2--2--2--2-2-2--2--2--2-2-2--2-2-2----------------|

G|------------------------------------------------------------|
D|------------------------------------------------------------|
A|---------------------------2---2-2-2--2--0-0-0--------------|
E|2---2-2-2--2---0-0-0-0-0------------------------------------|

Play Guitar Solo twice then finish on:
G|------|
D|------|
A|------|
E|-2~~~-|


| /  slide up
| \  slide down
| h  hammer-on
| p  pull-off
| ~  vibrato
| +  harmonic
| x  Mute note
| () Ghost Note
============================================================================





Comments


Popular Pendulum tabs & chords
Blood Sugar 1 Bass Tabs
Mutiny Bass Tabs
Tarantula 3 Bass Tabs
Crush Tabs
Fasten Your Seatbelt 2 Tabs
Girl In The Fire Intro Tabs
Moving Forward Intro Tabs
The Tempest 1 Tabs
The Tempest 4 Tabs
Witchcraft Tabs


Song lyrics



↑ Back to top | Tablatures and chords are parodies/interpretations of the original songs. You may use it for private study, scholarship, research or language learning purposes only
© 2014 AZChords.com Contact us | Privacy policy | DMCA | Add/correct tabs | Request tabs | Top 50 tabs