» » »

Pendulum, Girl In The Fire Bass tabs (ver.1)

Artists:  A B C D E F G H I J K L M N O P Q R S T U V W X Y Z # 

Girl In The Fire Bass tabs (ver.1)

Pendulum Tabs
 Rating:
4.3/5 (6 votes)
Girl In The Fire lessons Tabs too difficult? Try these video lessons and learn fast
1
                Hello D and B fans. Heres another Pendulum tune. Its a beasting of a start
with the acoustics but i like to add abit of tapping in A*. realy 
instrumentaly brilaintly. sorry for the mistakes. please vote and
comment :) peace out 

A.J


0.40 
Riff A
|------------5-3-------|-------------5-3---------|------------5-3---------|
|----------------6-5---|-----------------5/6-5---|----------------5/6-5---|
|--------3-4---------6-|---------3-4-----------6-|--------3-4-----------6-|
|-6-6--6---------------|-6-6-0-6-----------------|-6-6--6-----------------|

Interlude
|-------------------------|
|-----6-----------5/6-5---|
|---8---8--5-6----------6-|
|-6------------6----------|

back to riff A

Riff B
|-----------5-3-------|---------------5-6-5-----|-----------5-3--------|
|---------------6-5---|-------5-6-----------8-6-|----------------6-5---|
|-8-8-6-4-----------6-|---8-8-----5-6-----------|-----6-4------------6-|
|---------4-----------|-6-----------------------|-6-6-----6------------|

Interlude
|-------------------------|
|-----6-----------5/6-5---|
|---8---8--5-6----------6-|
|-6------------6----------|

Back to Riff A xlots

2nd Interlude 
|---------------|
|---------------|
|---8--6-6--4-6-|
|-6-------------|

Acoustic solo (you can play Riff A) or this
|---------------------|
|------------6-6--6-5-|
|-8-8--8-8-8----------| x4 then back to interlude
|---------------------|

|----------------------|
|-------------6-6--6-5-|
|--------3-4-----------| x4 then back to interlude
|-6-6--6---------------|

|-------------------------|
|-----6\5--------6\5--6\5-|
|-------------------------| x heaps then back to the interlude
|-6-6-----6-6--6----------|

guitar solo
|-------------------------|
|-----6\5--------6\5--6\5-|
|-------------------------| x heaps then back to the interlude
|-6-6-----6-6--6----------|

Riff A
|------------5-3-------|-------------5-3---------|------------5-3---------|
|----------------6-5---|-----------------5/6-5---|----------------5/6-5---|
|--------3-4---------6-|---------3-4-----------6-|--------3-4-----------6-|
|-6-6--6---------------|-6-6-0-6-----------------|-6-6--6-----------------|

Interlude
|-------------------------|
|-----6-----------5/6-5---|
|---8---8--5-6----------6-|
|-6------------6----------|

back to riff A

Riff B
|-----------5-3-------|---------------5-6-5-----|-----------5-3--------|
|---------------6-5---|-------5-6-----------8-6-|----------------6-5---|
|-8-8-6-4-----------6-|---8-8-----5-6-----------|-----6-4------------6-|
|---------4-----------|-6-----------------------|-6-6-----6------------|

Interlude
|-------------------------|
|-----6-----------5/6-5---|
|---8---8--5-6----------6-|
|-6------------6----------|

outro
|-------------------------|         |-------------------|
|-----6\5--------6\5--6\5-|         |-----6-5---6-7--9~-|
|-------------------------| x heaps |---8-----6---------|
|-6-6-----6-6--6----------|         |-6-----------------|
            
Submit corrections

comments powered by Disqus
↑ Back to top | Pendulum Bass for Girl In The Fire. Lyrics for acoustic guitar and electric guitar. 1 Tablatures and chords are parodies/interpretations of the original songs. You may use it for private study, scholarship, research or language learning purposes only