» » »

Pendulum, Crush Bass tabs (ver.1)

Artists:  A B C D E F G H I J K L M N O P Q R S T U V W X Y Z # 

Crush Bass tabs (ver.1)

Pendulum Tabs
Rating:
5/5 (3 votes)
Crush lessons Tabs too difficult? Try these video lessons and learn fast
                -----------------------------------------------------------------
-----------------------------------------------------------------


Tuning: Drop D

---Guitar Intro---

--------------------------------------------------------------------

G|--------------------------------------------------------|
D|-4-----------------24----------------4------------------|
A|---------------------------------------2222222222222222-|
D|----24444444444444----24444444444444--------------------|

G|------------------|
D|------------------|                                        x7
A|-55555555---------| 
D|---------22222222-|

--------------------------------------------------------------------


G|----------------------------------|
D|----------------------------------|
A|-55555555-------------------------|           x4
D|---------222222224444444422222222-|


--------------------------------------------------------------------

G|--------------------------------------------------------|
D|-4-----------------24----------------4------------------|
A|---------------------------------------2222222222222222-|
D|----24444444444444----24444444444444--------------------|

G|------------------|
D|------------------|                                        x4
A|-55555555---------| 
D|---------22222222-|

--------------------------------------------------------------------


G|----------------------------------|
D|----------------------------------|
A|-55555555-------------------------|           x4
D|---------222222224444444422222222-|


*There's a tiny bass part after that, very quiet, I think this is how it goes

G|---------------------------------|
D|---------------------------------|
A|--------2--------5---------------|           x2
D|-4--------------------2----------|

---Acustic comes in, no more bass---
            
Submit corrections

comments powered by Disqus
↑ Back to top | Pendulum Bass for Crush. Lyrics for acoustic guitar and electric guitar. Tablatures and chords are parodies/interpretations of the original songs. You may use it for private study, scholarship, research or language learning purposes only