>
 >
Blood Sugar 1

Blood Sugar 1 Guitar Tabs

Pendulum - Blood Sugar 1 chords, tabs, tablatures, lyrics

Guitar lessons | Add/correct | Request | Top 50 tabs Artists:  A B C D E F G H I J K L M N O P Q R S T U V W X Y Z 0-9

Blood Sugar 1 Guitar Tabs – Pendulum

CD, Sheet music, Poster

Do you like Blood Sugar 1? Share with your friends now
Bass TabsBass Tabs v2Bass Tabs v3TabsTabs v2
I looked at the existing tab which is perfect but on the version of the song that ive 
its missing like half the song so i thought i would tab that bit as well. Btw im gonna use 
first bit from the existing tab cos im lazy like that.

Intro (both guitars)
e|------------|-------------------|--------------|-----------------|
B|------------|-------------------|--------------|-----------------|
G|------------|-------------------|--------------|-----------------|
D|-5--------6-|-5-----3-3-3--3-3--|-5---------6--|-5----3.-3-3--3--|
A|-5--------6-|-5-----3-3-3--3-3--|-5---------6--|-5----3.-3-3--3--|
D|-5--------6-|-5-----3-3-3--3-3--|-5---------6--|-5----3.-3-3--3--|

e|------------|-------------------|-----------|----------------------|
B|------------|-------------------|-----------|----------------------|
G|------------|-------------------|-----------|----------------------|
D|-5--------6-|-5-----3-3-3--3-3--|-5--6-5--6-|-5-6-5-6-55555555-----|
A|-5--------6-|-5-----3-3-3--3-3--|-5--6-5--6-|-5-6-5-6-55555555-----|
D|-5--------6-|-5-----3-3-3--3-3--|-5--6-5--6-|-5-6-5-6-55555555-----|

Riff comes in (gtr 1:first line, gtr 2:second line)
e|-9--8--6----|--------8------|-------6------|-------6--------|
B|----------8-|-8-8-/11--8----|-6---8---8----|-6-6-8---8------|
G|------------|---------------|--------------|----------------|
D|------------|---------------|--------------|----------------|
A|------------|---------------|--------------|----------------|
D|------------|---------------|--------------|----------------|

e|------------|---------------|-------------|-----------------|
B|------------|---------------|-------------|-----------------|
G|------------|---------------|-------------|-----------------|
D|------------|-------------6-|-5-----------|---------------3-|
A|------------|-------------6-|-5-----------|---------------3-|
D|------------|-------------6-|-5-----------|---------------3-|

e|-9--8--6----|--------8------|-------6------|-------6--------|
B|----------8-|-8-8-/11--8----|-6---8---8----|-6-6-8---8------|
G|------------|---------------|--------------|----------------|
D|------------|---------------|--------------|----------------|
A|------------|---------------|--------------|----------------|
D|------------|---------------|--------------|----------------|

e|------------|---------------|-------------|-----------------|
B|------------|---------------|-------------|-----------------|
G|------------|---------------|-------------|-----------------|
D|-5----------|-------------6-|-8-----------|---------------3-|
A|-5----------|-------------6-|-8-----------|---------------3-|
D|-5----------|-------------6-|-8-----------|---------------3-|

e|-9--8--6----|--------8------|-------6------|-------6--------|
B|----------8-|-8-8-/11--8----|-6---8---8----|-6-6-8---8------|
G|------------|---------------|--------------|----------------|
D|------------|---------------|--------------|----------------|
A|------------|---------------|--------------|----------------|
D|------------|---------------|--------------|----------------|

e|------------|---------------|-------------|-----------------|-------|
B|------------|---------------|-------------|-----------------|-------|
G|------------|---------------|-------------|-----------------|-------|
D|-5----------|-------------6-|-5-----------|---------------3-|-5-----|
A|-5----------|-------------6-|-5-----------|---------------3-|-5-----|
D|-5----------|-------------6-|-5-----------|---------------3-|-5-----|

________________________________BREAK___________________________________

'Chorus': x1

e|-9--8--6----|--------8------|-------6------|-------6--------|
B|----------8-|-8-8-/11--8----|-6---8---8----|-6-6-8---8------|
G|------------|---------------|--------------|----------------|
D|------------|---------------|--------------|----------------|
A|------------|---------------|--------------|----------------|
D|------------|---------------|--------------|----------------|

e|------------|---------------|-------------|-----------------|
B|------------|---------------|-------------|-----------------|
G|------------|---------------|-------------|-----------------|
D|-5--5--5--5-|-5---5---5---6-|-5--5--5--5--|-5----5----5---3-|
A|-5--5--5--5-|-5---5---5---6-|-5--5--5--5--|-5----5----5---3-|
D|-5--5--5--5-|-5---5---5---6-|-5--5--5--5--|-5----5----5---3-|

e|-9--8--6----|--------8------|-------6------|----------------|
B|----------8-|-8-8-/11--8----|-6---8---8----|-6-6-5-4--4-4---|
G|------------|---------------|--------------|----------------|
D|------------|---------------|--------------|----------------|
A|------------|---------------|--------------|----------------|
D|------------|---------------|--------------|----------------|

e|------------|---------------|-------------|2nd intro bass pattern|
B|------------|---------------|-------------|----------------------|
G|------------|---------------|-------------|----------------------|
D|-5--5--5--5-|-5---5---5---6-|-5--5--5--5--|-5----3.-3-3--3-------|
A|-5--5--5--5-|-5---5---5---6-|-5--5--5--5--|-5----3.-3-3--3-------|
D|-5--5--5--5-|-5---5---5---6-|-5--5--5--5--|-5----3.-3-3--3-------|

and again, things change slightly

e|-9--8--6----|--------8------|-------6------|-------6--------|
B|----------8-|-8-8-/11--8----|-6---8---8----|-6-6-8---8------|
G|------------|---------------|--------------|----------------|
D|------------|---------------|--------------|----------------|
A|------------|---------------|--------------|----------------|
D|------------|---------------|--------------|----------------|

e|------------|---------------|-------------|-----------------|
B|------------|---------------|-------------|-----------------|
G|------------|---------------|-------------|-----------------|
D|-5--5--5--5-|-5---5---5---6-|-5--5--5--5--|-5////5////4///3-|
A|-5--5--5--5-|-5---5---5---6-|-5--5--5--5--|-5////5////4///3-|
D|-5--5--5--5-|-5---5---5---6-|-5--5--5--5--|-5////5////4///3-|


e|-9--8--6----|---------------|------------|------------|
B|----------8-|-6-------------|------------|------------|
G|------------|----7--6--5----|------------|------------|
D|------------|---------------|-8--5--5--5-|-5--5--5--5-|
A|------------|---------------|------------|------------|
D|------------|---------------|------------|------------|

e|------------|-------------|------------|---------------|
B|------------|-------------|------------|---------------|
G|------------|-------------|------------|---------------|
D|-5--5--5--6-|-5--5--5--6--|-5--6--5--6-|-5--5--5--5----|
A|-5--5--5--6-|-5--5--5--6--|-5--6--5--6-|-5--5--5--5----|
D|-5--5--5--6-|-5--5--5--6--|-5--6--5--6-|-5--5--5--5----|

No riff bass 'verse' x2
____________________

Play this section twice through

e|---------------|---------------|---------------|------------------|
B|---------------|---------------|---------------|------------------|
G|---------------|---------------|---------------|------------------|
D|-5--5-5--5-5-5-|-6-6-6.---6.-6.|-8--8-8--8-8-8-|-10-10-10.--8--3--|
A|-5--5-5--5-5-5-|-6-6-6.---6.-6.|-8--8-8--8-8-8-|-10-10-10.--8--3--|
D|-5--5-5--5-5-5-|-6-6-6.---6.-6.|-8--8-8--8-8-8-|-10-10-10.--8--3--|

e|---------------|---------------|---------------|---------------|
B|---------------|---------------|---------------|---------------|
G|---------------|---------------|---------------|---------------|
D|-5--5-5--5-5-5-|-6-6-6.---6.-6.|-8--8-8--8-8-8-|----3.--3-3--3-|
A|-5--5-5--5-5-5-|-6-6-6.---6.-6.|-8--8-8--8-8-8-|----3.--3-3--3-|
D|-5--5-5--5-5-5-|-6-6-6.---6.-6.|-8--8-8--8-8-8-|----3.--3-3--3-|

Except the second time, instead of the last two bars, play something similar to this:

e|---------------|----------------|
B|---------------|----------------|
G|---------------|----------------|
D|----5--6--5--6-|-5---5---5---5--|
A|----5--6--5--6-|-5---5---5---5--|
D|----5--6--5--6-|-5---5---5---5--|

'Chorus': x1

e|-9--8--6----|--------8------|-------6------|-------6--------|
B|----------8-|-8-8-/11--8----|-6---8---8----|-6-6-8---8------|
G|------------|---------------|--------------|----------------|
D|------------|---------------|--------------|----------------|
A|------------|---------------|--------------|----------------|
D|------------|---------------|--------------|----------------|

e|------------|---------------|-------------|-----------------|
B|------------|---------------|-------------|-----------------|
G|------------|---------------|-------------|-----------------|
D|------------|-5---5---5---6-|-5--5--5--5--|-5////5////4///3-|
A|------------|-5---5---5---6-|-5--5--5--5--|-5////5////4///3-|
D|------------|-5---5---5---6-|-5--5--5--5--|-5////5////4///3-|

e|-9--8--6----|--------8------|-------6------|-------6--------|
B|----------8-|-8-8-/11--8----|-6---8---8----|-6-6-8---8------|
G|------------|---------------|--------------|----------------|
D|------------|---------------|--------------|----------------|
A|------------|---------------|--------------|----------------|
D|------------|---------------|--------------|----------------|

e|------------|---------------|-------------|2nd intro bass pattern|
B|------------|---------------|-------------|----------------------|
G|------------|---------------|-------------|----------------------|
D|-5--5--5--5-|-5---5---5---6-|-5--5--5--5--|-5----3.-3-3--3-------|
A|-5--5--5--5-|-5---5---5---6-|-5--5--5--5--|-5----3.-3-3--3-------|
D|-5--5--5--5-|-5---5---5---6-|-5--5--5--5--|-5----3.-3-3--3-------|

e|-9--8--6----|--------8------|-------6------|-------6--------|
B|----------8-|-8-8-/11--8----|-6---8---8----|-6-6-8---8------|
G|------------|---------------|--------------|----------------|
D|------------|---------------|--------------|----------------|
A|------------|---------------|--------------|----------------|
D|------------|---------------|--------------|----------------|

e|------------|---------------|-------------|-----------------|
B|------------|---------------|-------------|-----------------|
G|------------|---------------|-------------|-----------------|
D|-5--5--5--5-|-5---5---5---6-|-5--5--5--5--|-5////5////4///3-|
A|-5--5--5--5-|-5---5---5---6-|-5--5--5--5--|-5////5////4///3-|
D|-5--5--5--5-|-5---5---5---6-|-5--5--5--5--|-5////5////4///3-|

e|-9--8--6----|-------------|-9--8--6----|---------------|
B|----------8-|-8--8--8--8--|----------8-|8-8-8-8-8-8-8-8|
G|------------|-------------|------------|---------------|
D|------------|-------------|------------|---------------|
A|------------|-------------|------------|---------------|
D|------------|-------------|------------|---------------|

e|------------|-------------|------------|---------------|
B|------------|-------------|------------|---------------|
G|------------|-------------|------------|---------------|
D|-5--5--5--6-|-5--5--5--6--|-5--6--5--6-|-5--5--5--5----|
A|-5--5--5--6-|-5--5--5--6--|-5--6--5--6-|-5--5--5--5----|
D|-5--5--5--6-|-5--5--5--6--|-5--6--5--6-|-5--5--5--5----|

Play this section twice through

e|---------------|---------------|---------------|------------------|
B|---------------|---------------|---------------|------------------|
G|---------------|---------------|---------------|------------------|
D|-5--5-5--5-5-5-|-6-6-6.---6.-6.|-8--8-8--8-8-8-|-10-10-10.--8--3--|
A|-5--5-5--5-5-5-|-6-6-6.---6.-6.|-8--8-8--8-8-8-|-10-10-10.--8--3--|
D|-5--5-5--5-5-5-|-6-6-6.---6.-6.|-8--8-8--8-8-8-|-10-10-10.--8--3--|

e|---------------|---------------|---------------|---------------|
B|---------------|---------------|---------------|---------------|
G|---------------|---------------|---------------|---------------|
D|-5--5-5--5-5-5-|-6-6-6.---6.-6.|-8--8-8--8-8-8-|----3.--3-3--3-|
A|-5--5-5--5-5-5-|-6-6-6.---6.-6.|-8--8-8--8-8-8-|----3.--3-3--3-|
D|-5--5-5--5-5-5-|-6-6-6.---6.-6.|-8--8-8--8-8-8-|----3.--3-3--3-|

Except the second time, instead of the last two bars, play something similar to this:

e|---------------|----------------|
B|---------------|----------------|
G|---------------|----------------|
D|----5--6--5--6-|-5----5----5----|
A|----5--6--5--6-|-5----5----5----|
D|----5--6--5--6-|-5----5----5----|

_________________________________BREAK___________________________________

then theres this futuristic bit where it goes something like this:

e|-11p10p8-10p8-10p8--|

or an octave above if ur lucky enough 2 hav a guitar with more than 22 frets

then theres 2 big bass drum hits and this riff fades in:

e|------------|---------------|  |------------|-----------------------|
B|------------|---------------|  |------------|-----------------------|
G|------------|---------------|x3|------------|-----------------------|
D|------------|---------------|  |------------|-----------------------|
A|------------|---------------|  |------------|-----------------------|
E|-5--5--5--5-|-5-3-5/8\5-3-5-|  |-5--5--5/10-|-10b11b10-10--8--5\3/5-|

repeat this once then repeat this another 2 times at full volume with the drums as well.

then into the main riff and that riff combined (sort of)
e|-9--8--6----|--------8------|-------6------|-------6--------|
B|----------8-|-8-8-/11--8----|-6---8---8----|-6-6-8---8------|
G|------------|---------------|--------------|----------------|
D|------------|---------------|--------------|----------------|
A|------------|---------------|--------------|----------------|
D|------------|---------------|--------------|----------------|

e|-----------------|-----------------|-----------------|-----------------|
B|-----------------|-----------------|-----------------|-----------------|
G|-----------------|-----------------|-----------------|-----------------|
D|-----------------|-----------------|-----------------|-----------------|
A|-----------------|-----------------|-----------------|-----------------|
D|-5-5-5-5-5-5-5-5-|-5-5-5-5-5-5-6-6-|-5-5-5-5-5-5-5-5-|-5//////4//////3-|

e|-9--8--6----|--------8------|-------6------|-------6--------|
B|----------8-|-8-8-/11--8----|-6---8---8----|-6-6-8---8------|
G|------------|---------------|--------------|----------------|
D|------------|---------------|--------------|----------------|
A|------------|---------------|--------------|----------------|
D|------------|---------------|--------------|----------------|

e|-----------------|-----------------|-----------------|-----------------|
B|-----------------|-----------------|-----------------|-----------------|
G|-----------------|-----------------|-----------------|-----------------|
D|-----------------|-----------------|-----------------|-----------------|
A|-----------------|-----------------|-----------------|-----------------|
D|-5-5-5-5-5-5-5-5-|-5-5-5-5-5-5-6-6-|-5-5-5-5-5-5-5-5-|-----3----3-3--3-|

e|-9--8--6----|--------8------|-------6------|-------6--------|
B|----------8-|-8-8-/11--8----|-6---8---8----|-6-6-8---8------|
G|------------|---------------|--------------|----------------|
D|------------|---------------|--------------|----------------|
A|------------|---------------|--------------|----------------|
D|------------|---------------|--------------|----------------|

e|-----------------|-----------------|-----------------|-----------------|
B|-----------------|-----------------|-----------------|-----------------|
G|-----------------|-----------------|-----------------|-----------------|
D|-----------------|-----------------|-----------------|-----------------|
A|-----------------|-----------------|-----------------|-----------------|
D|-5-5-5-5-5-5-5-5-|-5-5-5-5-5-5-6-6-|-5-5-5-5-5-5-5-5-|-5//////4//////3-|

e|-9--8--6----|---------------|------------|------------|
B|----------8-|-6-------------|------------|------------|
G|------------|----7--6--5----|------------|------------|
D|------------|---------------|-8--5--5--5-|-5--5--5--5-|
A|------------|---------------|------------|------------|
D|------------|---------------|------------|------------|

e|----------------|------------------|----------------|-----------------|
B|----------------|------------------|----------------|-----------------|
G|----------------|------------------|----------------|-----------------|
D|----------------|------------------|----------------|-----------------|
A|----------------|------------------|----------------|-----------------|
D|5555555555555566|555555555///4///3-|5555556655555566|5566556655555555-|

Play this section twice through

e|---------------|---------------|---------------|------------------|
B|---------------|---------------|---------------|------------------|
G|---------------|---------------|---------------|------------------|
D|-5--5-5--5-5-5-|-6-6-6.---6.-6.|-8--8-8--8-8-8-|-10-10-10.--8--3--|
A|-5--5-5--5-5-5-|-6-6-6.---6.-6.|-8--8-8--8-8-8-|-10-10-10.--8--3--|
D|-5--5-5--5-5-5-|-6-6-6.---6.-6.|-8--8-8--8-8-8-|-10-10-10.--8--3--|

e|---------------|---------------|---------------|---------------|
B|---------------|---------------|---------------|---------------|
G|---------------|---------------|---------------|---------------|
D|-5--5-5--5-5-5-|-6-6-6.---6.-6.|-8--8-8--8-8-8-|----3.--3-3--3-|
A|-5--5-5--5-5-5-|-6-6-6.---6.-6.|-8--8-8--8-8-8-|----3.--3-3--3-|
D|-5--5-5--5-5-5-|-6-6-6.---6.-6.|-8--8-8--8-8-8-|----3.--3-3--3-|

Except the second time, instead of the last two bars, play something similar to this:

e|---------------|----------------|
B|---------------|----------------|
G|---------------|----------------|
D|----5--6--5--6-|-5---5---5---5--|
A|----5--6--5--6-|-5---5---5---5--|
D|----5--6--5--6-|-5---5---5---5--|

e|-9--8--6----|--------8------|-------6------|-------6--------|
B|----------8-|-8-8-/11--8----|-6---8---8----|-6-6-8---8------|
G|------------|---------------|--------------|----------------|
D|------------|---------------|--------------|----------------|
A|------------|---------------|--------------|----------------|
D|------------|---------------|--------------|----------------|

e|-----------------|-----------------|-----------------|-----------------|
B|-----------------|-----------------|-----------------|-----------------|
G|-----------------|-----------------|-----------------|-----------------|
D|-----------------|-----------------|-----------------|-----------------|
A|-----------------|-----------------|-----------------|-----------------|
D|-5-5-5-5-5-5-5-5-|-5-5-5-5-5-5-6-6-|-5-5-5-5-5-5-5-5-|-5//////4//////3-|

e|-9--8--6----|--------8------|-------6------|-------6--------|
B|----------8-|-8-8-/11--8----|-6---8---8----|-6-6-8---8------|
G|------------|---------------|--------------|----------------|
D|------------|---------------|--------------|----------------|
A|------------|---------------|--------------|----------------|
D|------------|---------------|--------------|----------------|

e|-----------------|-----------------|-----------------|-----------------|
B|-----------------|-----------------|-----------------|-----------------|
G|-----------------|-----------------|-----------------|-----------------|
D|-----------------|-----------------|-----------------|-----------------|
A|-----------------|-----------------|-----------------|-----------------|
D|-5-5-5-5-5-5-5-5-|-5-5-5-5-5-5-6-6-|-5-5-5-5-5-5-5-5-|-----3----3-3--3-|

e|-9--8--6----|--------8------|-------6------|-------6--------|
B|----------8-|-8-8-/11--8----|-6---8---8----|-6-6-8---8------|
G|------------|---------------|--------------|----------------|
D|------------|---------------|--------------|----------------|
A|------------|---------------|--------------|----------------|
D|------------|---------------|--------------|----------------|

e|-----------------|-----------------|-----------------|-----------------|
B|-----------------|-----------------|-----------------|-----------------|
G|-----------------|-----------------|-----------------|-----------------|
D|-----------------|-----------------|-----------------|-----------------|
A|-----------------|-----------------|-----------------|-----------------|
D|-5-5-5-5-5-5-5-5-|-5-5-5-5-5-5-6-6-|-5-5-5-5-5-5-5-5-|-5//////4//////3-|

start to slow down at the end here as if the tune is dying
e|-9--8--6----|---------------|------------|------------|
B|----------8-|-6-------------|------------|------------|
G|------------|----7--6--5----|----------5-|-6--5-------|
D|------------|---------------|-8--5--8----|-------8--3-|
A|------------|---------------|------------|------------|
D|------------|---------------|------------|------------|

e|----------------|------------------|----------------|-----------------|
B|----------------|------------------|----------------|-----------------|
G|----------------|------------------|----------------|-----------------|
D|----------------|------------------|----------------|-----------------|
A|----------------|------------------|----------------|-----------------|
D|5555555555555566|555555555///4///3-|5555556655555566|5566556655555555-|

then end on
e|----|
B|----|
G|-/5-|
D|----|
A|----|
D|----|

e|---|
B|---|
G|---|
D|-5-|
A|-5-|
D|-5-|

well thats it cya!





Comments


Popular Pendulum tabs & chords
The Other Side 2 Bass Tabs
The Tempest Bass Tabs
The Tempest 2 Bass Tabs
Granite Tabs
Mutiny Tabs
Slam 2 Tabs
The Island Tabs
The Other Side 1 Tabs
The Tempest 4 Tabs
Watercolour Ukulele


Song lyrics



↑ Back to top | Tablatures and chords are parodies/interpretations of the original songs. You may use it for private study, scholarship, research or language learning purposes only
© 2014 AZChords.com Contact us | Privacy policy | DMCA | Add/correct tabs | Request tabs | Top 50 tabs