» » »

Pencey Prep, Yesterday Tabs (ver.3)

Artists:  A B C D E F G H I J K L M N O P Q R S T U V W X Y Z # 

Yesterday Tabs (ver.3)

Pencey Prep Tabs
 Rating:
4.3/5 (6 votes)
Yesterday lessons Tabs too difficult? Try these video lessons and learn fast
1
                Tuning: Standard (EADGBe)

Work out timing and strumming where needed

KEY
~ let ring
b bend to
r release bend to

Intro
Guitar 1 - Clean
e---------------|
B--2-2----0-0---|
G-2-2-2--1-1-1--|
D---------------|
A---------------|
E---------------|

Guitar 2 - Clean
e---------|
B-2~------|
G-2~--2~--|
D-2~--4~--|
A-0~--4~--|
E-----2~--|

Guitar 1
e-------4-5~--555-4----|
B-5-555-------------5~-|
G----------------------|
D----------------------|
A----------------------|
E----------------------|

Verse 2
Guitar 1
e---------|
B-5-3-2-0-|
G-4-2-2-1-|
D---------|
A---------|
E---------|

Guitar 2 same as intro

Repeat intro

Chorus - Dirty
Guitar 1
e-------------|--------------|---------|
B-------------|--------------|---------|
G-11-13-14-16-|-14-13-11-9-6-|---4-6-7-|
D-------------|--------------|-7-------|
A-9--11-12-14-|-12-11--9-7-4-|---2-4-5-|
E-------------|--------------|-5-------|

Guitar 2
e---------|
B---------|
G---------|
D-2-4-6-7-|
A-0-2-4-5-|
E---------|

Repeat intro dirty

Verse 2
Guitar 1
e------------|
B------------|
G-9-7-6------|
D-------7-6--|
A-7-5-4------|
E-------5-4--|

Solo/Bridge
Guitar 1
e-------------|-------------|---------------------|
B-------------|-------------|---------------------|
G-------------|-------6-7-6-|---4--7-6---7-6------|
D-7b9r7-6b8r6-|-7-6-7-------|-6--------9-----9-7~-|
A-------------|-------------|---------------------|
E-------------|-------------|---------------------|

Guitar 2
e--------|
B--------|
G-14-13--|
D--------|
A-12-11--|
E--------|

After solo guitars 1 and 2 strum intro chords
The guitar 1
e-------------|
B-------------|
G-------------|
D-------------|
A-------00-22-|
E-22-44-------|

Guitar 1
e-5b6r5-|
B-------|
G-------|
D-------|
A-------|
E-------|

Guitar 2
e-------------|
B-2-----------|
G-2-----------|
D-2-2-0-------|
A-0-----4-----|
E---------2-4-|

Outro: play intro and chorus

I know it's a really sloppy tab but if you work out timing and stuff
yourself it makes sense.
            
Submit corrections

comments powered by Disqus
↑ Back to top | Pencey Prep Tabs for Yesterday. Lyrics for acoustic guitar and electric guitar. 1 Tablatures and chords are parodies/interpretations of the original songs. You may use it for private study, scholarship, research or language learning purposes only