» » »

Pencey Prep, Yesterday Tabs (ver.2)

Artists:  A B C D E F G H I J K L M N O P Q R S T U V W X Y Z # 

Yesterday Tabs (ver.2)

Pencey Prep Tabs
 Rating:
4/5 (5 votes)
Yesterday lessons Tabs too difficult? Try these video lessons and learn fast
1
                
The time for the strums is a bit off. Just listen and you’ll figure it out. = P (p.s. 
doesn’t include the solo, sorry…)

Intro:
e|------------------------------------------|
B|------------------------------------------|
G|------------------------------------------|
D|----------11-----11-------------9--9------|
A|-12-12-12----12----12--11-11-11--11-11----|
E|------------------------------------------|

e|------------------------------------------|
B|------------------------------------------|
G|------------------------------------------|
D|----------11----11--------------9----9h11-|
A|-12-12-12----12----12--11-11-11---11------|
E|------------------------------------------|

e|--------------------------------------------------------------|
B|--------------------------------------------------------------|
G|--------------------------------------------------------------|
D|-xxx7------xxx4------x7------x4-----44-66-77-99---------------|
A|-xxx7------xxx4------x7------x4-----44-66-77-99---------------|
E|-xxx5-(4x)-xxx2-(4x)-x5-(4x)-x2(2x)-22-44-55-77---------------|

Piano:
E|-----------------|
B|-----------------|
G|-9~-13~-14~-13~--|
D|-----------------|
A|-----------------|
E|-----------------| (2x)

Verse 1:
e|--------------------|
B|--------------------|
G|-9~--9-7-6----------|
D|-x~--x-x-x-7-6-7-6--|
A|-7~--7-5-4-x-x-x-x--|
E|-----------5-4-5-4--| (2x)

Then intro, but the last four chords are:
e|--------------|
B|--------------|
G|-11-13-14-16--|
D|-x--xx-xx-xx--|
A|-9--11-12-14--|
E|--------------|

Chorus:
e|------------------------------|
B|------------------------------|
G|--14--13--11--9---------------|
D|---x---x---x--x--7--9--11-11--|
A|--12--11---9--7--x--x--xx-xx--|
E|-----------------5--7--9--9---|

[Repeat All]
Solo - Sorry, babes. I couldn’t figure this out to save my life = (
[Intro but with octaves]
[Verse]

Intro but the piano is this instead:
e|------------|
B|------------|
G|-9-13-14-13-|
D|-x-xx-xx-xx-|
A|-7-11-12-11-|
E|------------|

[Chorus]

Play intro but end with:
e|---|
B|---|
G|---|
D|-7-|
A|---|
E|---|


| /  slide up
| \  slide down
| h  hammer-on
| p  pull-off
| ~  vibrato
| +  harmonic
| x  Mute note
| ^  Bend
            
Submit corrections

comments powered by Disqus
↑ Back to top | Pencey Prep Tabs for Yesterday. Lyrics for acoustic guitar and electric guitar. 1 Tablatures and chords are parodies/interpretations of the original songs. You may use it for private study, scholarship, research or language learning purposes only