>
 >
Yesterday

Yesterday Guitar Tabs

Pencey Prep - Yesterday chords, tabs, tablatures, lyrics

Guitar lessons | Add/correct | Request | Top 50 tabs Artists:  A B C D E F G H I J K L M N O P Q R S T U V W X Y Z 0-9

Yesterday Guitar Tabs – Pencey Prep

CD, Sheet music, Poster

Do you like Yesterday? Share with your friends now
TabsTabs v2Tabs v3
This is my first tab, enjoy bitches.

Guitar 1: Frank Iero

Guitar 2: Neil Sabatino

I'm not shure about which guitar is played by whom, but who cares??

/: slide up
\: slide down
x: mute note
~: let ring
b: bend


Intro:Clear


Guitar 1
e|------------------------------------|
B|------------------------------------|
G|------------------------------------|
D|-------11---11-----------9---9------|
A|-12--12---12---12--11--11--11--11---|
E|------------------------------------|
                                         X2
e|--------------------------------------|
B|--------------------------------------|
G|--------------------------------------|
D|-------11---11-----------9-9h11(//)---| In the second time, slide up till
A|-12--12---12---12--11--11-------------| wherever you want...
E|--------------------------------------|


Guitar 2: Starts at the second time of Guitar 1's part.
e|-------------------------------------------------|
B|-------------------------------------------------|
G|-------------------------------------------------|
D|-------------------------------------------------|
A|-12-12-12-12-12-12-12-12--11-11-11-11-11-11-11-11|
E|-------------------------------------------------|
PM.................................................

Bridge:Clear


Guitar 1:There is a slight change in the struming, you can figure it out by hearing the song.
e|----------------------------------------------------------|
B|----------------------------------------------------------|
G|----------------------------------------------------------|
D|-7-77-xxxx-77-x-7-77-xxxx-7-7-4-44-xxxx-44-x-4-44-xxxx-4-4| X2
A|-7-77-xxxx-77-x-7-77-xxxx-7-7-4-44-xxxx-44-x-4-44-xxxx-4-4|
E|-5-55-xxxx-55-x-5-55-xxxx-5-5-2-22-xxxx-22-x-2-22-xxxx-2-2|
                                            <-untill here the second time

Guitar 2:This part is played too by the keyboard.
e|----------------------------------------------------------|
B|----------------------------------------------------------|
G|--7~-----777--13--14~-----141414--13--7~------777--13--14~|
D|--x------xxx--x---x-------x-x-x---x---x-------xxx--x---x-~|
A|--9~-----999--11--12~-----121212--11--9~------999--11--12~|
E|----------------------------------------------------------|


Guitar 1:Just strum the 244 and slide it down, hear the song and you'll see, well, hear...
e|---------------------------------------|
B|---------------------------------------|
G|---------------------------------------|
D|-4-\-6-\-7-\-9-------------------------|
A|-4-\-6-\-7-\-9-------------------------|
E|-2-\-4-\-5-\-7-------------------------|

Verse 2:Clear


Guitar 1
e|---------------------------------------------------|
B|---------------------------------------------------|
G|---------------------------------------------------|
D|-7~------------------------444~--------------------|
A|-7~------------------------444~--------------------|
E|-5~------------------------222~--------------------|

e|---------------------------------------------------|
B|---------------------------------------------------|
G|---------------------------------------------------|
D|-7-77~---------------------444~----------4--4-4-444|
A|-7-77~---------------------444~----------4--4-4-444|
E|-5-55~---------------------222~----------2--2-2-222|


Guitar 2
e|---------------------------------------------------------|
B|---------------------------------------------------------|
G|-9-99~--999--7--6-------------9-99--999-7--6-------------|
D|-x-xx~--xxx--x--x--7-6-77-6~--x-xx--xxx-x--x--7-6-77-6~--|
A|-7-77~--777--5--4--x-x-xx-x---7-77--777-5--4--x-x-xx-x~--|
E|-------------------5-4-55-4~------------------5-4-55-4~--|

Bridge 2:Clear, then distortion.


Guitar 1:The same as the first part.
e|----------------------------------------------------------|
B|----------------------------------------------------------|
G|----------------------------------------------------------|
D|-7-77-xxxx-77-x-7-77-xxxx-7-7-4-44-xxxx-44-x-4-44-xxxx-4-4| X2
A|-7-77-xxxx-77-x-7-77-xxxx-7-7-4-44-xxxx-44-x-4-44-xxxx-4-4|
E|-5-55-xxxx-55-x-5-55-xxxx-5-5-2-22-xxxx-22-x-2-22-xxxx-2-2|
                                            <-untill here the second time


Guitar 2
e|----------------------------------------------------------|
B|----------------------------------------------------------|
G|--7~-----777--13--14~-----141414--13--7~------777--13--14~|
D|--x------xxx--x---x-------x-x-x---x---x-------xxx--x---x-~|
A|--9~-----999--11--12~-----121212--11--9~------999--11--12~|
E|----------------------------------------------------------|


Guitar 1: Distortion starts here.
e|-------------------------------------------|
B|-------------------------------------------|
G|-------------------------------------------|
D|-44-/-66-/-77-/-99-------------------------|
A|-44-/-66-/-77-/-99-------------------------|
E|-22-/-44-/-55-/-77-------------------------|

Chorus:Distortion


Guitar 1
e|-------------------------|
B|-------------------------|
G|-------------------------|
D|-777-9999-11111111-121212|
A|-777-9999-11111111-121212|
E|-555-7777-9-9-9-9--101010|
                              x2
e|--------------------------|
B|--------------------------|
G|--------------------------|
D|-777-9999-11111111-12-11-9|
A|-777-9999-11111111-12-11-9|
E|-555-7777-9-9-9-9--10-9--7|

Guitar 2
e|-----------------------------------------------------------------|
B|-----------------------------------------------------------------|
G|-141414-131313131313-1111111111-999-777--------------------------|
D|-x-x-x--x-x-x-x-x-x--x-x-x-x-x--xxx-xxx-777-9999-11111111-12-11-9| x2
A|-121212-11111111111--9-9-9-9-9--777-555-xxx-xxxx-x-x-x-x--x--x--x|
E|----------------------------------------555-7777-9-9-9-9--10-9--7|

Bridge 2:Almost same as Intro, except Guitar 2, but with distortion.

Guitar1
e|------------------------------------|
B|------------------------------------|
G|------------------------------------|
D|-------11---11-----------9---9------|
A|-12--12---12---12--11--11--11--11---|
E|------------------------------------|
                                         x4
e|--------------------------------------|
B|--------------------------------------|
G|--------------------------------------|
D|-------11---11-----------9-9h11(//)---| Slide it up on the fourth time,
A|-12--12---12---12--11--11-------------| again, to wherever you want...
E|--------------------------------------|

Guitar 2
e|------------------------------------|
B|------------------------------------|
G|------------------------------------|
D|------------------------------------| x2
A|-12~---------------11~--------------|
E|------------------------------------|

e|----------------------------------------|
B|----------------------------------------|
G|----------------------------------------|
D|----------------------------------------| x2
A|-12121212121212121211111111111111111(//)| Slide it up too to wherever
E|----------------------------------------| you want...

Bridge:Clear, the same as the first

Guitar 1
e|----------------------------------------------------------|
B|----------------------------------------------------------|
G|----------------------------------------------------------|
D|-7-77-xxxx-77-x-7-77-xxxx-7-7-4-44-xxxx-44-x-4-44-xxxx-4-4| X2
A|-7-77-xxxx-77-x-7-77-xxxx-7-7-4-44-xxxx-44-x-4-44-xxxx-4-4|
E|-5-55-xxxx-55-x-5-55-xxxx-5-5-2-22-xxxx-22-x-2-22-xxxx-2-2|
                                            <-untill here the second time

Guitar 2
e|----------------------------------------------------------|
B|----------------------------------------------------------|
G|--7~-----777--13--14~-----141414--13--7~------777--13--14~|
D|--x------xxx--x---x-------x-x-x---x---x-------xxx--x---x-~|
A|--9~-----999--11--12~-----121212--11--9~------999--11--12~|
E|----------------------------------------------------------|


Guitar 1:Here strum just the 244, like the first time.
e|---------------------------------------|
B|---------------------------------------|
G|---------------------------------------|
D|-4-\-6-\-7-\-9-------------------------|
A|-4-\-6-\-7-\-9-------------------------|
E|-2-\-4-\-5-\-7-------------------------|

Verse 2:A part with a weird effect, and the rest clear.


Guitar 1:Here Frank uses an effect, I don't know wich is it, but like a flager, or 
Play it clear, well, thts what I do...
e|-------------------------------------------------------|
B|-------------------------------------------------------|
G|-------------------------------------------------------|
D|-7~------------------------44-444~--4---4-44-444~------|
A|-7~------------------------44-444~--4---4-44-444~------|
E|-5~------------------------22-222~--2---2-22-222~------|

e|---------------------------------------------------|
B|---------------------------------------------------|
G|---------------------------------------------------|
D|-7-77~-----------------7~--444~----------4--4-4-444|
A|-7-77~-----------------7~--444~----------4--4-4-444|
E|-5-55~-----------------5~--222~----------2--2-2-222|


Guitar 2
e|---------------------------------------------------------|
B|---------------------------------------------------------|
G|-9-99~--999--7--6-------------9-99--999-7--6-------------|
D|-x-xx~--xxx--x--x--7-6-77-6~--x-xx--xxx-x--x--7-6-77-6~--|
A|-7-77~--777--5--4--x-x-xx-x---7-77--777-5--4--x-x-xx-x~--|
E|-------------------5-4-55-4~------------------5-4-55-4~--|

Bridge 2:Clear, then distortion.


Guitar 1:The same as the last part.
e|----------------------------------------------------------|
B|----------------------------------------------------------|
G|----------------------------------------------------------|
D|-7-77-xxxx-77-x-7-77-xxxx-7-7-4-44-xxxx-44-x-4-44-xxxx-4-4| X2
A|-7-77-xxxx-77-x-7-77-xxxx-7-7-4-44-xxxx-44-x-4-44-xxxx-4-4|
E|-5-55-xxxx-55-x-5-55-xxxx-5-5-2-22-xxxx-22-x-2-22-xxxx-2-2|
                                            <-untill here the second time


Guitar 2
e|----------------------------------------------------------|
B|----------------------------------------------------------|
G|--7~-----777--13--14~-----141414--13--7~------777--13--14~|
D|--x------xxx--x---x-------x-x-x---x---x-------xxx--x---x-~|
A|--9~-----999--11--12~-----121212--11--9~------999--11--12~|
E|----------------------------------------------------------|


Guitar 1: Distortion starts here, strum all the chords.
e|----------------------------------------|
B|----------------------------------------|
G|----------------------------------------|
D|-44--66--77--99-------------------------|
A|-44--66--77--99-------------------------|
E|-22--44--55--77-------------------------|

Chorus:Distortion


Guitar 1
e|-------------------------|
B|-------------------------|
G|-------------------------|
D|-777-9999-11111111-121212|
A|-777-9999-11111111-121212|
E|-555-7777-9-9-9-9--101010|
                              x2
e|--------------------------|
B|--------------------------|
G|--------------------------|
D|-777-9999-11111111-12-11-9|
A|-777-9999-11111111-12-11-9|
E|-555-7777-9-9-9-9--10-9--7|

Guitar 2
e|-----------------------------------------------------------------|
B|-----------------------------------------------------------------|
G|-141414-131313131313-1111111111-999-777--------------------------|
D|-x-x-x--x-x-x-x-x-x--x-x-x-x-x--xxx-xxx-777-9999-11111111-12-11-9| x2
A|-121212-11111111111--9-9-9-9-9--777-555-xxx-xxxx-x-x-x-x--x--x--x|
E|----------------------------------------555-7777-9-9-9-9--10-9--7|

Solo: This is what makes the tab interesting,enjoy...There are no 1's, just 11's

Guitar 1
e|------------------------------------------|
B|------------------------------------------|
G|------------------------------------------|
D|------------------------------------------|
A|-12-12-12b(13)12b(13)-12-12-12b(13)12b(13)|
E|------------------------------------------|

e|------------------------------------------|
B|------------------------------------------|
G|------------------------------------------|
D|------------------------------------------|
A|-11-11-11b(12)11b(12)-11-11-11b(12)11b(12)|
E|------------------------------------------|

e|------------------------------------|
B|------------------------------------|
G|------------------------------------|
D|---------11~---12-11-11-12-11-11-12-|
A|-121212-----------------------------|
E|------------------------------------|

e|------------------------------------|
B|------------------------------------|
G|------------------------------------|
D|----------9~---11-9-11-11b(12)-11-9-|
A|-111111-----------------------------|
E|------------------------------------|

e|---------------------------------------------|
B|---------------------------------------------|
G|---------------------------------------------|
D|---------------------------------------------|
A|-12-12-12-xxxx-12-12-xx-12-12-12-xxxx-12--12-|
E|---------------------------------------------|

e|---------------------------------------------|
B|---------------------------------------------|
G|---------------------------------------------|
D|---------------------------------------------|
A|-11-11-11-xxxx-11-11-xx-11-11-11-xxxx-11--11-|
E|---------------------------------------------|

e|--------------------------------------------|
B|--------------------------------------------|
G|--------------------------------------------|
D|-------14b(15)---14b(15)---14b(15)---14b(15)|
A|-121212--------12--------12--------12-------|
E|--------------------------------------------|

e|-----------------------------------------|The end of the solo is hard to
B|-----------------------------------------|tell how it goes, it's like an
G|-----------------------------------------|overdriven part, the distortion
D|-------13b(14)-13b(14)-13b(14)-14b(15----|~|doesn't let you hear what Frank's
A|-111111----------------------------------|playing, so it doesn't matter,
E|-----------------------------------------|just mess around whith that...

Guitar 2
e|------------------------------------------|
B|------------------------------------------|
G|------------------------------------------|
D|------------------------------------------|
A|-12~------------------12~-----------------|
E|------------------------------------------|

e|------------------------------------------|
B|------------------------------------------|
G|------------------------------------------|
D|------------------------------------------|
A|-11~--------------------------------------|
E|------------------------------------------|

e|------------------------------------|
B|------------------------------------|
G|------------------------------------|
D|---------------12~------------------|
A|-12~--------------------------------|
E|------------------------------------|

e|------------------------------------|
B|------------------------------------|
G|------------------------------------|
D|------------------11b(12)11---------|
A|-11~--------------------------------|
E|------------------------------------|

e|---------------------------------------------|
B|---------------------------------------------|
G|---------------------------------------------|
D|---------------------------------------------|
A|-12-12-12-xxxx-12-12-xx-12-12-12-xxxx-12--12-|
E|---------------------------------------------|

e|---------------------------------------------|
B|---------------------------------------------|
G|---------------------------------------------|
D|---------------------------------------------|
A|-11-11-11-xxxx-11-11-xx-11-11-11-xxxx-11--11-|
E|---------------------------------------------|

e|--------------------------------------------|
B|--------------------------------------------|
G|--------------------------------------------|
D|--------------------------------------------|
A|-121212--------12--------12--------12-------|
E|--------------------------------------------|

e|----------------------------------------------------|
B|----------------------------------------------------|
G|----------------------------------------------------|
D|------------------------------------1111111111111111|
A|-111111------------------11--11-1111----------------|
E|----------------------------------------------------|

Bridge: Distortion.


Guitar 1
e|-----------------------------------------------------------|
B|-----------------------------------------------------------|
G|-----------------------------------------------------------|
D|-7-77-xxxx-77-xx-7-77-xxxx-7-/-4-44-xxxx-44-x-4-44-xxxx-4-/| X2
A|-7-77-xxxx-77-xx-7-77-xxxx-7-/-4-44-xxxx-44-x-4-44-xxxx-4-/|
E|-5-55-xxxx-55-xx-5-55-xxxx-5-/-2-22-xxxx-22-x-2-22-xxxx-2-/|
                                             <-untill here the second time

Guitar 2
e|----------------------------------------------------------|
B|----------------------------------------------------------|
G|--7~-----777--13--14~-----141414--13--7~------777--13--14~|
D|--x------xxx--x---x-------x-x-x---x---x-------xxx--x---x-~|
A|--9~-----999--11--12~-----121212--11--9~------999--11--12~|
E|----------------------------------------------------------|


Guitar 1:Again,strum just the 244 and slide down...
e|---------------------------------------|
B|---------------------------------------|
G|---------------------------------------|
D|-4-\-6-\-7-\-9-------------------------|
A|-4-\-6-\-7-\-9-------------------------|
E|-2-\-4-\-5-\-7-------------------------|

Verse 2:Distortion.


Guitar 1
e|---------------------------------------------------|
B|---------------------------------------------------|
G|---------------------------------------------------|
D|-7~------------------------444~--------------------|
A|-7~------------------------444~--------------------|
E|-5~------------------------222~--------------------|

e|---------------------------------------------------|
B|---------------------------------------------------|
G|---------------------------------------------------|
D|-7-77~---------------------444~----------4--4-4-444|
A|-7-77~---------------------444~----------4--4-4-444|
E|-5-55~---------------------222~----------2--2-2-222|
PM                                            .......

Guitar 2
e|---------------------------------------------------------|
B|---------------------------------------------------------|
G|-9-99~--999--7--6-------------9-99--999-7--6-------------|
D|-x-xx~--xxx--x--x--7-6-77-6~--x-xx--xxx-x--x--7-6-77-6~--|
A|-7-77~--777--5--4--x-x-xx-x---7-77--777-5--4--x-x-xx-x~--|
E|-------------------5-4-55-4~------------------5-4-55-4~--|

Bridge 2:Distortion.


Guitar 1:The same as the last part.
e|----------------------------------------------------------|
B|----------------------------------------------------------|
G|----------------------------------------------------------|
D|-7-77-xxxx-77-x-7-77-xxxx-7-7-4-44-xxxx-44-x-4-44-xxxx-4-4| X2
A|-7-77-xxxx-77-x-7-77-xxxx-7-7-4-44-xxxx-44-x-4-44-xxxx-4-4|
E|-5-55-xxxx-55-x-5-55-xxxx-5-5-2-22-xxxx-22-x-2-22-xxxx-2-2|
                                            <-untill here the second time


Guitar 2
e|----------------------------------------------------------|
B|----------------------------------------------------------|
G|--7~-----777--13--14~-----141414--13--7~------777--13--14~|
D|--x------xxx--x---x-------x-x-x---x---x-------xxx--x---x-~|
A|--9~-----999--11--12~-----121212--11--9~------999--11--12~|
E|----------------------------------------------------------|


Guitar 1
e|------------------------------------------|
B|------------------------------------------|
G|------------------------------------------|
D|-44--66--77--99---------------------------|
A|-44--66--77--99---------------------------|
E|-22--44--55--77---------------------------|

Chorus:Distortion


Guitar 1
e|-------------------------|
B|-------------------------|
G|-------------------------|
D|-777-9999-11111111-121212|
A|-777-9999-11111111-121212|
E|-555-7777-9-9-9-9--101010|
                              x2
e|--------------------------|
B|--------------------------|
G|--------------------------|
D|-777-9999-11111111-12-11-9|
A|-777-9999-11111111-12-11-9|
E|-555-7777-9-9-9-9--10-9--7|

Guitar 2
e|-----------------------------------------------------------------|
B|-----------------------------------------------------------------|
G|-141414-131313131313-1111111111-999-777--------------------------|
D|-x-x-x--x-x-x-x-x-x--x-x-x-x-x--xxx-xxx-777-9999-11111111-12-11-9| x2
A|-121212-11111111111--9-9-9-9-9--777-555-xxx-xxxx-x-x-x-x--x--x--x|
E|----------------------------------------555-7777-9-9-9-9--10-9--7|

Outro: Distirtion


Guitar1
e|------------------------------------|
B|------------------------------------|
G|------------------------------------|
D|-------11---11-----------9---9------|
A|-12--12---12---12--11--11--11--11---|
E|------------------------------------|

e|--------------------------------------|
B|--------------------------------------|
G|--------------------------------------|
D|-------11---11-----------9-9h11-------|
A|-12--12---12---12--11--11-------------|
E|--------------------------------------|

e|------------------------------------|
B|------------------------------------|
G|------------------------------------|
D|-------11---11-----------9---9------|
A|-12--12---12---12--11--11--11--11---|
E|------------------------------------|

e|----------------------------------------|
B|----------------------------------------|
G|----------------------------------------|
D|-------11---11-----------9-9h11-/7~-/0~-|
A|-12--12---12---12--11--11---------------|
E|----------------------------------------|

Guitar 2
e|------------------------------------|
B|------------------------------------|
G|------------------------------------|
D|------------------------------------| x2
A|-12~---------------11~--------------|
E|------------------------------------|

e|------------------------------------|
B|------------------------------------|
G|------------------------------------|
D|------------------------------------|
A|-12121212121212121211111111111111111|
E|------------------------------------|

e|-----------------------------------------|
B|-----------------------------------------|
G|-----------------------------------------|
D|-----------------------------------------|
A|-12121212121212121211111111111111111-/0~-|
E|-----------------------------------------|


This song is very easy, and the solo is just memorizing and practice.





Comments


Popular Pencey Prep tabs & chords
Fat And Alone Chords
Llyoyd Dobler Chords
19 Tabs
Florida Plates Intro Tabs
Hold Still The Red Light Intro Tabs
P.S. Don't Write Tabs
The Secret Goldfish Tabs
Yesterday 1 Tabs
Fat And Alone Ukulele
Llyoyd Dobler Ukulele


Song lyrics



↑ Back to top | Tablatures and chords are parodies/interpretations of the original songs. You may use it for private study, scholarship, research or language learning purposes only
© 2014 AZChords.com Contact us | Privacy policy | DMCA | Add/correct tabs | Request tabs | Top 50 tabs