>
 >
The Secret Goldfish

The Secret Goldfish Guitar Tabs

Pencey Prep - The Secret Goldfish chords, tabs, tablatures, lyrics

Guitar lessons | Add/correct | Request | Top 50 tabs Artists:  A B C D E F G H I J K L M N O P Q R S T U V W X Y Z 0-9

The Secret Goldfish Guitar Tabs – Pencey Prep

CD, Sheet music, Poster

Do you like The Secret Goldfish? Share with your friends now
Tabs
alright this is my first tab, so there might be a few mistakes
I'm sure that it's not 100% correct, but it is what I managed to achieve by listening to 
song. Doing that may help you.

xomabbii <3
-------------------------------------

INTRO PART 1
GUITAR I
e|-----2-----|-----2-----|
B|-------3---|-------3/5-|
G|-0-0-------|-0-0-------|
D|-----------|-----------| 2x
A|-----------|-----------|
E|-----------|-----------|

INTRO PART 2
GUITAR I
e|---------|---------|---------|---------|
B|---------|---------|---------|---------|
G|-7-7-7-7-|-7-7-7-7-|-7-7-7-7-|-7-7-7---|
D|-7-7-7-7-|-7-7-7-7-|-7-7-7-7-|-7-7-7---|
A|-5-5-5-5-|-5-5-5-5-|-5-5-5-5-|-5-5-5---|
E|---------|---------|---------|---------|

GUITAR II
e|---2-----|---2-----|---2-----|---2-----|
B|-----3---|-----3---|-----3---|-----3---|
G|-2-------|-2-------|-2-------|-2-------|
D|---------|---------|---------|---------|
A|---------|---------|---------|---------|
E|---------|---------|---------|---------|
[[continues playing like this while GUITAR I plays part 1 of the intro again]]

[[repeat INTRO PART 2]]

INTRO PART 3
GUITAR I
e|-5----3--|-2-------|-5----3--|-2-2/3---------|
B|---------|---3-----|---------|-------3-3-----|
G|---------|---------|---------|---------------|
D|---------|---------|---------|---------------|
A|---------|---------|---------|---------------|
E|---------|---------|---------|---------------|

GUITAR II
[soft strumming]
e|-2-------|-0-------|-0-------|-3-------|
B|-3-------|-3-------|-2-------|-3-------|
G|-2-------|-0-------|-2-------|-0-------|
D|-0-------|-2-------|-2-------|-0-------|
A|---------|-2-------|-0-------|-2-------|
E|---------|---------|---------|-3-------|

[[repeat INTRO PART 3]]

[[GUITAR I plays INTRO PART 1 while GUITAR II plays INTRO PART 2]]

VERSE 1
GUITAR I
e|---------|---------|---------|---------|
B|---------|---------|---------|---------|
G|-7-7-7-7-|-7-7-7-7-|-7-7-7-7-|-7-7-7-7-|
D|-7-7-7-7-|-7-7-7-7-|-7-7-7-7-|-7-7-7-7-|
A|-5-5-5-5-|-5-5-5-5-|-5-5-5-5-|-5-5-5-5-|
E|---------|---------|---------|---------|
                     "no matter how hard I try ... "

e|---------|---------|---------|---------|
B|---------|---------|---------|---------|
G|---------|---------|---------|---------|
D|-9-9-9-9-|-9-9-9-9-|-9-9-9-9-|-9-9-9-9-|
A|-9-9-9-9-|-9-9-9-9-|-9-9-9-9-|-9-9-9-9-|
E|-7-7-7-7-|-7-7-7-7-|-7-7-7-7-|-7-7-7-7-|
                      "to break all the times ... "

e|---------|---------|---------|---------|
B|---------|---------|---------|---------|
G|---------|---------|---------|---------|
D|-5-5-5-5-|-5-5-5-5-|-5-5-5-5-|-5-5-5-5-|
A|-5-5-5-5-|-5-5-5-5-|-5-5-5-5-|-5-5-5-5-|
E|-3-3-3-3-|-3-3-3-3-|-3-3-3-3-|-3-3-3-3-|

e|---------|
B|---------|
G|---------|
D|-5~------|
A|-5~------|
E|-3~------|
  " ... heartbreak is forever"

GUITAR II
e|---2-----|---2-----|---2-----|---2-----|
B|-----3---|-----3---|-----3---|-----3---|
G|-2-------|-2-------|-2-------|-2-------|
D|---------|---------|---------|---------|
A|---------|---------|---------|---------|
E|---------|---------|---------|---------|
                      "no matter how hard i try ..."

e|---2-----|---2-----|---2-----|---2-----|
B|-----3---|-----3---|-----3---|-----3---|
G|---------|---------|---------|---------|
D|-0-------|-0-------|-0-------|-0-------|
A|---------|---------|---------|---------|
E|---------|---------|---------|---------|
                      "to break all the times ..."

e|---3-----|---3-----|---3-----|---3-----|
B|-----3---|-----3---|-----3---|-----3---|
G|---------|---------|---------|---------|
D|---------|---------|---------|---------|
A|---------|---------|---------|---------|
E|-3-------|-3-------|-3-------|-3-------|

e|-3~------|---------|---------|
B|-3~------|---------|---------|
G|-0~------|---------|---------|
D|-0~------|-5-5-4-4-|-2-2-4-4-|
A|-0~------|---------|---------|
E|-3~------|---------|---------|
      "... heartbreak is forever"

VERSE 2
GUITAR I repeats VERSE 1

GUITAR II
e|---------|---------|---------|---------|
B|---------|---------|---------|---------|
G|---------|---------|---------|---------|
D|-5-5-4-4-|-5-5-4-4-|-5-5-4-4-|-2-2-0-0-|
A|---------|---------|---------|---------|
E|---------|---------|---------|---------|
                      "land of the lost..."

e|---------|---------|---------|---------|
B|---------|---------|---------|---------|
G|---------|---------|---------|---------|
D|-5-5-4-4-|-5-5-4-4-|-5-5-4-4-|-2-2-0-0-|
A|---------|---------|---------|---------|
E|---------|---------|---------|---------|
                      "I found myself for nothing ..."


e|---------|---------|---------|---------|
B|---------|---------|---------|---------|
G|---------|---------|---------|---------|
D|-5-5-4-4-|-5-5-4-4-|-5-5-4-4-|-2-2-0-0-|
A|---------|---------|---------|---------|
E|---------|---------|---------|---------|

e|---------|---------|---------|---------|
B|---------|---------|---------|---------|
G|---------|---------|---------|---------|
D|-0-0-2-2-|-4-4-5-5-|-7-7-5-5-|-4-4-2-2-|
A|---------|---------|---------|---------|
E|---------|---------|---------|---------|
                                      "this time ..."

VERSE 3
GUITAR I repeats VERSE 1

GUITAR II
e|---2-----|---2-----|---2-----|---2-----|
B|-----3---|-----3---|-----3---|-----3---|
G|-2-------|-2-------|-2-------|-2-------|
D|---------|---------|---------|---------|
A|---------|---------|---------|---------|
E|---------|---------|---------|---------|
                      "promises broken find me ..."

e|---2-----|---2-----|---2-----|---2-----|
B|-----3---|-----3---|-----3---|-----3---|
G|---------|---------|---------|---------|
D|-0-------|-0-------|-0-------|-0-------|
A|---------|---------|---------|---------|
E|---------|---------|---------|---------|
                      "I'm clutching to you for something ..."

e|---3-----|---3-----|---3-----|---3-----|
B|-----3---|-----3---|-----3---|-----3---|
G|---------|---------|---------|---------|
D|---------|---------|---------|---------|
A|---------|---------|---------|---------|
E|-3-------|-3-------|-3-------|-3-------|

e|-3~------|
B|-3~------|
G|-0~------|
D|-0~------|
A|-0~------|
E|-3~------|

GUITAR I
[[strumming]]
e|-3-------|-3-------|---------|---------|
B|-3-------|-3-------|---------|---------|
G|-0-------|-0-------|---------|---------|
D|-0-------|-0-------|---------|---------|
A|-2-------|-2-------|---------|---------|
E|-3~------|-3-------|-3-3-2-2-|-0-0-2-2-|
"something that you're not ..."      "... believing"

e|---------|---------|---------|
B|---------|---------|---------|
G|--7------|--7------|--7------|
D|------7--|------7--|---------|
A|---------|---------|---------|
E|---------|---------|---------|
            "believing what you say ..."

e|---------|---------|---------|
B|---------|---------|---------|
G|--4------|--4------|--4------|
D|------4--|------4--|---------|
A|---------|---------|---------|
E|---------|---------|---------|
            "makes me lie awake at night ..."

e|---------|---------|---------|---------|---------|---------|
B|---------|---------|---------|---------|---------|---------|
G|---------|---------|---------|---------|---------|---------|
D|-5-------|-5-------|-5-5-----|-5-------|-5-5-4-4-|-2-2-0-0-|
A|------5--|------5--|---------|------5--|---------|---------|
E|---------|---------|---------|---------|---------|---------|
[[repeat VERSE 1]]

GUITAR II
"believing..."
e|---------|---------|---------|---------|
B|---------|---------|---------|---------|
G|---------|---------|---------|---------|
D|---------|-4-4-5-5-|-7-7-5-5-|-4-4-----|
A|-5-5-7-7-|---------|---------|-----7-7-|
E|---------|---------|---------|---------|
                 "believing what you say ..."

e|---------|---------|---------|---------|
B|---------|---------|---------|---------|
G|---------|---------|---------|---------|
D|---------|-4-4-5-5-|-7-7-5-5-|-4-4-----|
A|-5-5-7-7-|---------|---------|-----7-7-|
E|---------|---------|---------|---------|
                      "makes me lie a-"

e|---------|---------|---------|---------|
B|---------|---------|---------|---------|
G|---------|---------|---------|---------|
D|---------|-4-4-5-5-|-7-7-5-5-|-4-4-----|
A|-5-5-7-7-|---------|---------|-----7-7-|
E|---------|---------|---------|---------|
   "-wake at night"

e|---------|---------|---------|---------|
B|---------|---------|---------|---------|
G|---------|---------|---------|---------|
D|---------|-4-4-5-5-|-7-7-5-5-|-4-4-----|
A|-5-5-7-7-|---------|---------|-----7-7-|
E|---------|---------|---------|---------|
                                       "the truth ..."

GUITAR I repeats VERSE 1

GUITAR II
e|---2-----|---2-----|---2-----|---2-----|
B|-----3---|-----3---|-----3---|-----3---|
G|-2-------|-2-------|-2-------|-2-------|
D|---------|---------|---------|---------|
A|---------|---------|---------|---------|
E|---------|---------|---------|---------|
                      "the truth is not what scares me ..."

e|---2-----|---2-----|---2-----|---2-----|
B|-----3---|-----3---|-----3---|-----3---|
G|---------|---------|---------|---------|
D|-0-------|-0-------|-0-------|-0-------|
A|---------|---------|---------|---------|
E|---------|---------|---------|---------|
                      "that's why you have to lie ..."

e|---3-----|---3-----|---3-----|---3-----|
B|-----3---|-----3---|-----3---|-----3---|
G|---------|---------|---------|---------|
D|---------|---------|---------|---------|
A|---------|---------|---------|---------|
E|-3-------|-3-------|-3-------|-3-------|

e|-3~------|
B|-3~------|
G|-0~------|
D|-0~------|
A|-0~------|
E|-3~------|
"all the time..."

CHORUS
BOTH GUITARS
[[fast strumming]]
e|-2-------|-0-------|-0-------|-3-------|
B|-3-------|-3-------|-2-------|-3-------|
G|-2-------|-0-------|-2-------|-0-------|
D|-0-------|-2-------|-2-------|-0-------|
A|---------|-2-------|-0-------|-2-------| 2x
E|---------|---------|---------|-3-------|
[[i think, i can hear one guitar playing 5th and 4th fret on the D string, while the 
strums that last chord like this:
D|-5-5-4-4-|-5-5-4-4-|
"i can't close my eyes ..." ]]

e|-2-------|
B|-3-------|
G|-2-------|
D|-0-------|
A|---------|
E|---------|
"I won't shed a tear"

[[GUITAR II continues playing the chords as in the CHORUS while GUITAR I plays INTRO 
3]]

VERSE 4
GUITAR I
"'caue heartbreak is forever"
e|---------|---------|---------|---------|
B|---------|---------|---------|---------|
G|-7-7-7-7-|-7-7-7-7-|-7-7-7-7-|-7-7-7-7-|
D|-7-7-7-7-|-7-7-7-7-|-7-7-7-7-|-7-7-7-7-|
A|-5-5-5-5-|-5-5-5-5-|-5-5-5-5-|-5-5-5-5-|
E|---------|---------|---------|---------|
                     "i found myself for nothing ..."

e|---------|---------|---------|---------|
B|---------|---------|---------|---------|
G|---------|---------|---------|---------|
D|-9-9-9-9-|-9-9-9-9-|-9-9-9-9-|-9-9-9-9-|
A|-9-9-9-9-|-9-9-9-9-|-9-9-9-9-|-9-9-9-9-|
E|-7-7-7-7-|-7-7-7-7-|-7-7-7-7-|-7-7-7-7-|
                      "to believe in ..."

e|---------|---------|---------|---------|
B|---------|---------|---------|---------|
G|---------|---------|---------|---------|
D|-5-5-5-5-|-5-5-5-5-|-5-5-5-5-|-5-5-5-5-|
A|-5-5-5-5-|-5-5-5-5-|-5-5-5-5-|-5-5-5-5-|
E|-3-3-3-3-|-3-3-3-3-|-3-3-3-3-|-3-3-3-3-|


e|---------|---------|---------|
B|---------|-8-8-7-7-|-5-5-7-7-|
G|---------|---------|---------|
D|-5-------|---------|---------|
A|-5-------|---------|---------|
E|-3-------|---------|---------|
                           "this time"
[[repeat, but leave out the last eight notes]]

GUITAR II
"'cause heartbreak is forever"
e|---------|---------|---------|---------|
B|---------|---------|---------|---------|
G|---------|---------|---------|---------|
D|-5-5-4-4-|-5-5-4-4-|-5-5-4-4-|-2-2-0-0-|
A|---------|---------|---------|---------|
E|---------|---------|---------|---------|
                      "i found myself for nothing ..."

e|---------|---------|---------|---------|
B|---------|---------|---------|---------|
G|---------|---------|---------|---------|
D|-5-5-4-4-|-5-5-4-4-|-5-5-4-4-|-2-2-0-0-|
A|---------|---------|---------|---------|
E|---------|---------|---------|---------|
                      "to believe in ..."


e|---------|---------|---------|---------|
B|---------|---------|---------|---------|
G|---------|---------|---------|---------|
D|-5-5-4-4-|-5-5-4-4-|-5-5-4-4-|-2-2-0-0-|
A|---------|---------|---------|---------|
E|---------|---------|---------|---------|

e|---------|---------|---------|---------|
B|---------|---------|---------|---------|
G|---------|---------|---------|---------|
D|-0-0-2-2-|-4-4-5-5-|-7-7-5-5-|-4-4-2-2-|
A|---------|---------|---------|---------|
E|---------|---------|---------|---------|
                                      "this time ..."

e|---2-----|---2-----|---2-----|---2-----|
B|-----3---|-----3---|-----3---|-----3---|
G|-2-------|-2-------|-2-------|-2-------|
D|---------|---------|---------|---------|
A|---------|---------|---------|---------|
E|---------|---------|---------|---------|
                      "promises broken find me ..."

e|---2-----|---2-----|---2-----|---2-----|
B|-----3---|-----3---|-----3---|-----3---|
G|---------|---------|---------|---------|
D|-0-------|-0-------|-0-------|-0-------|
A|---------|---------|---------|---------|
E|---------|---------|---------|---------|
                      "I'm clutching to you for something ..."

e|---3-----|---3-----|---3-----|---3-----|
B|-----3---|-----3---|-----3---|-----3---|
G|---------|---------|---------|---------|
D|---------|---------|---------|---------|
A|---------|---------|---------|---------|
E|-3-------|-3-------|-3-------|-3-------|

e|-3~------|
B|-3~------|
G|-0~------|
D|-0~------|
A|-0~------|
E|-3~------|
"all the time..."

REPEAT CHORUS twice
[[I'm unsure of what GUITAR I plays after the last CHORUS but it is something along the 
of
e|---------|---------|---------|---------|
B|---------|---------|---------|---------|
G|---------|---------|-----7-7-|-6-6-----|
D|---------|-4-4-5-5-|-7-7-----|-----7-7-|
A|-5-5-7-7-|---------|---------|---------|
E|---------|---------|---------|---------|

or something like that =] ]]

OUTRO
GUITAR I
e|---------|---------|---------|---------|---------|---------|
B|---------|---------|---------|---------|---------|---------|
G|---------|---------|-7-------|-7-------|-9-------|-9-------|
D|---------|---------|---7-----|---7-----|---9-----|---9-----|
A|---------|---------|---------|---------|---------|---------|
E|-3-3-2-2-|-0-0-2-2-|---------|---------|---------|---------|
"and heartbreak is forever"

e|---------|---------|---------|---------|---------|---------|
B|---------|---------|---------|---------|---------|---------|
G|-11------|-11------|-7~------|---------|---------|---------|
D|----11---|----11---|---------|-5-5-4-4-|-2-2-4-4-|-0~------|
A|---------|---------|---------|---------|---------|---------|
E|---------|---------|---------|---------|---------|---------|
                               "but nothing lasts forever"

GUITAR II
e|-2~------|-2~------|-0~------|-0~------|-0~------|-0~------|-3~------|-2~------|
B|-3~------|-3~------|-3~------|-3~------|-2~------|-2~------|-3~------|-3~------|
G|-2~------|-2~------|-0~------|-0~------|-2~------|-2~------|-0~------|-2~------|
D|-0~------|-0~------|-2~------|-2~------|-2~------|-2~------|-0~------|-0~------|
A|---------|---------|-2~------|-2~------|---------|---------|-2~------|---------|
E|---------|---------|---------|---------|---------|---------|-3~------|---------|
                                                              "but nothing lasts forever"





Comments


Popular Pencey Prep tabs & chords
10 Rings Bass Tabs
Llyoyd Dobler Chords
Attention Reader Intro Tabs
Hold Still The Red Light Intro Tabs
P.S. Don't Write Tabs
Ten Rings Tabs
Yesterday Tabs
Yesterday 2 Tabs
Fat And Alone Ukulele
Llyoyd Dobler Ukulele


Song lyrics



↑ Back to top | Tablatures and chords are parodies/interpretations of the original songs. You may use it for private study, scholarship, research or language learning purposes only
© 2014 AZChords.com Contact us | Privacy policy | DMCA | Add/correct tabs | Request tabs | Top 50 tabs