>
 >
Ten Rings

Ten Rings Guitar Tabs

Pencey Prep - Ten Rings chords, tabs, tablatures, lyrics

Guitar lessons | Add/correct | Request | Top 50 tabs Artists:  A B C D E F G H I J K L M N O P Q R S T U V W X Y Z 0-9

Ten Rings Guitar Tabs – Pencey Prep

CD, Sheet music, Poster

Do you like Ten Rings? Share with your friends now
Tabs
Tuning: Standard (Low to high EADGBe)

Intro/Verse Guitar I - Clean
e------------------------------|
B------------------------------|
G----0------------0------------|x6
D---4------0-----2-------0-----|
A--5--5---4-----3---3---2------|
E--------5--5----------3---3---|

Intro Guitar II - Distortion
e------|
B------|
G--77--|
D--xx--|x2
A--55--|
E------|

Pre-Chorus Guitar I ("End of summer you cut me off...")- Clean
e--2--2--2--2--|--0--0--0--0--|--5--5--5--5--|--3--3--3--3--|
B---3--3--3--3-|---3--3--3--3-|---3--3--3--3-|---3--3--3--3-|
G--------------|--------------|--------------|--------------|x2
D--------------|--------------|--------------|--------------|
A--------------|--------------|--------------|--------------|
E--------------|--------------|--------------|--------------|


Chorus - Distortion
e--------------------------|
B--------------------------|
G--------------------------|
D--77--xxxx-22--4/55--7-5--|
A--55--xxxx-00--2/33--5-3--|
E--------------------------|

Post-Chorus/Verse Guitar I - Clean
e------------------------------|
B------------------------------|
G----0------------0------------|x6
D---4------0-----2-------0-----|
A--5--5---4-----3---3---2------|
E--------5--5----------3---3---|

Post-Chorus Guitar II - Distortion
e------|
B------|
G--77--|
D--xx--|x2
A--55--|
E------|

Pre-Chorus Guitar I ("End of summer you cut me off...")
e-2--2--2--2--|-0--0--0--0--|-5--5--5--5--|-3--3--3--3--|
B--3--3--3--3-|--3--3--3--3-|--3--3--3--3-|--3--3--3--3-|
G-------------|-------------|-------------|-------------|x2
D-------------|-------------|-------------|-------------|
A-------------|-------------|-------------|-------------|
E-------------|-------------|-------------|-------------|


Chorus
e--------------------------|
B--------------------------|
G--------------------------|x4
D--77--xxxx-22--4/55--7-5--|
A--55--xxxx-00--2/33--5-3--|
E--------------------------|

Bridge I Guitar I
e-----------------------------------|
B-----------------------------------|
G-----------------------------------|
D--77-------------------------------|
A--99--------7777--13--1414--11-99--|
E------------9999--11--1212--9--77--|

Then back to chorus

Bridge II
e------------------------|-----------------------------------|
B------------------------|-----------------------------------|
G------------------------|-----------------------------------|
D--7~--2~--3~------------|--77777777--22222222--33333333-----|
A--5~--0~--3~--55555555--|--55555555--00000000--33333333--5--|
E----------1~--33333333--|----------------------11111111--3--|
               ********     ********  ********  ********

Solo
e-------------------------------|-----------------------|--------------------------|
B-------------------------------|-----------------------|--------------------------|
G--9b11-9b11-9b11-9b11-9b11r9-7-|--9b11r9-7-------------|--------------------------|
D-------------------------------|-----------9-7---------|-----------7/9-7----------|
A-------------------------------|---------------9-7-----|-------7-9----------------|
E-------------------------------|-------------------10--|--10-10-------------------|

e------------------|------------------|----------------------|----------------------|
B------------------|------------------|----------------------|----------------------|
G--------------9-7-|--------------9-7-|--/1212-1111-1010-77--|--/1212-1111-1010-77~-|
D---------7-9------|---------7-9------|----------------------|----------------------|
A-----7-9----------|-----7-9----------|----------------------|----------------------|
E--10--------------|--10--------------|----------------------|----------------------|

Guitar II in solo plays chorus

After solo
e------------------------|------------------------------|
B------------------------|------------------------------|
G------------------------|------------------------------|
D--7~--2~--4~------------|--7~--22--4~------------------|
A--5~--0~--2~--/3-2--5~--|--5~--00--2~--/3-2--55555555--|
E--------------------3~--|--------------------33333333--|
                                              ********
Not 100% sure about this part, but you can figure it out it's not that hard.
e----------------------|---------------------------------------------------------------------------|
B----------------------|--8-8888--10-10101010--12-12121212--14-14141414--14-14141414--15-15151515--|
G--7-7777--9999--1111--|--x-xxxx--x--x-x-x-x---x--x-x-x-x---x--x-x-x-x---x--x-x-x-x---x--x-x-x-x---|
D--x-xxxx--xxxx--x-x---|--5-5555--7--7-7-7-7---9--9-9-9-9---11-11111111--11-11111111--12-12121212--|
A--5-5555--7777--9-9---|---------------------------------------------------------------------------|
E----------------------|---------------------------------------------------------------------------|

Then play that octave part backwards. Ha ha.
==============================
KEY:
* palm mute
/ slide to
b bend to
r release bend to





Comments


Popular Pencey Prep tabs & chords
Llyoyd Dobler Chords
Florida Plates Intro Tabs
Heroine Slow Tabs
Hold Still The Red Light Intro Tabs
P.S. Don't Write Tabs
The Secret Goldfish Tabs
Yesterday Tabs
Yesterday 1 Tabs
Yesterday 2 Tabs
Llyoyd Dobler Ukulele


Song lyrics



↑ Back to top | Tablatures and chords are parodies/interpretations of the original songs. You may use it for private study, scholarship, research or language learning purposes only
© 2014 AZChords.com Contact us | Privacy policy | DMCA | Add/correct tabs | Request tabs | Top 50 tabs