» » »

P.S. Don't Write Tabs (ver.1)

Artists:  A B C D E F G H I J K L M N O P Q R S T U V W X Y Z # 

P.S. Don't Write Tabs (ver.1)

Pencey Prep
Rating:
0/5 (0 votes)

Hard to play? Try these video lessons and learn fast.
                Band: Pencey Prep
Tuning: standard
this is my first tab. im 15 years old. and certain this is correct.


INTRO
e|------------------------------------------|
b|------------------------------------------|
g|-5-----------2--10--9-7-7-----------------|
d|-5-2-5-3-2---2---x--x-x-x-----------------|
a|-3-----------0---8--7-5-5-----------------|
e|------------------------------------------| repeat as needed

e|------------------------------------------|
b|------------------------------------------|
g|-5-555555---------------------------------|
d|-5-555555-5-555555-7-777777-3-333333------|
a|-3-333333-5-555555-7-777777-3-333333------|
e|----------3-333333-5-555555-1-111111------| repeat as needed

theres some octaves that play over this but i couldn't figure it out SORRY

VERSE - CHORUS
e|------------------------------------------|
b|------------------------------------------|
g|------------------------------------------|
d|-3333-3-3333-3-33-3-----------------------|
a|-3333-3-3333-3-33-3-----------------------|  repeat as needed
e|-1111-1-1111-1-11-1-----------------------|
   ****   ****   **

e|------------------------------------------|
b|----0--1-0--------------------------------|
g|-2---------0------------------------------|
d|-2----------------------------------------|
a|-0----------------------------------------|
e|------------------------------------------| repeat as needed

e|------------------------------------------|
b|------------------------------------------|
g|-5555--3---1010101010101010---------------|
d|-5555--3----x-x-x-x-x-x-x-x---------------|
a|-3333--1----8-8-8-8-8-8-8-8---------------|
e|------------------------------------------| repeat as needed

SOLO
e|-8--12--12--------------------------------|
b|------12---13b15--15-13-------------------|
g|------------------------14-12-14-12-------|
d|------------------------------------------|
a|------------------------------------------|
e|------------------------------------------|

e|------------------------------------------|
b|------------------------------------------|
g|------------------------------------------|
d|-14-12---10-12-10b-12-10------------------|
a|-------------------------12-10------------|
e|------------------------------------------|

e|------------------------------------------|
b|------------------------------------------|
g|----------------------7b--5-7b-5-7b-------|
d|-------------5b-5-7-5---------------------|
a|-------5-7--------------------------------|
e|-8-5-8-----8------------------------------|

e|------------------------------------------|
b|-----1---------0--------------------------|
g|-------0---------0------------------------|
d|---2---------0-------5----3---------------|
a|-3-------------------5----3---------------|
e|-----------3---------3----1---------------|


im pretty sure that correct. just play all the bits ive tabbed in order with the song. 
100% certain about solo too. :)
            
Hard to play? Try these video lessons and learn fast. | Correct




comments powered by Disqus
↑ Back to top | Tablatures and chords are parodies/interpretations of the original songs. You may use it for private study, scholarship, research or language learning purposes only